Ads

Rust Color (Star Ocean 3: Till the End of Time) Guitar Tab

Submitted: Oct 02, 2007 by Kabukibear (Last updated: Nov 27, 2009)

5
Average: 5 (7 votes)
Download | Listen
Game: Star Ocean 3: Till the End of Time
Composer(s): Motoi Sakuraba
Style: Fingerstyle, Transcription

AutoScroll: Slow | Medium | Fast
Rust Color
~Star Ocean 3: Till The End of Time
Composed By: Motoi Sakuraba
Tabbed By: Justin Lincoln

Strings 1-5 tuned down by 1/2 step

        ^     ^    ^  ^  ^  ^     ^    ^    ^  ^  ^  ^
        Q     Q    E  E  E  E     Q    Q    E  E  E  E
D#||---------------------------|-------------------------||
A#||---------------------------|-------------------------||
F#||*--------------------------|------------------------*||
C#||*---x-----x----x--x--x--x--|--x----x----x--x--x--x--*||
G#||---11----11----x--6--x--x--|--3----3----x--6--x--x---||
E ||----0-----0----0--0--0--0--|--0----0----0--0--0--0---||

   E  E  E  E  E  E  E  E     E  E  E  E  E  E  E  E
---------1-----1--------0--|--------------5-----------|
------------------3--------|--------1--------5--------|
*-----2--------------------|-----2-----2--------5--0--|
*--0--------0--------0-----|--3-----------------------|
---------------------------|--------------------------|
---------------------------|--------------------------|

                                                        ^
  E  E  E  E  E  E  E  E     E  E  E  E  E  E  E  E     Q    E  E  E  E  E  E
--------8-----8--0--------|--------------0--------0--|--1----5--------1-----0--|
--------------------------|-----------3--------3-----|--3----------3-----------|
-----0-----0--------5--0--|--------0-----------------|--3-------3--------3-----|
--------------------------|-----0-----------0--------|-------------------------|
--------------------------|--2-----------------------|-------------------------|
--7-----------------------|--------------------------|-------------------------|

                           1st Ending ---------------
  E  E  E  E  E  E  E  E     E  E  E  E  E  E  E  E
--------------0-----------|--------------8-----------|
-----------1-----1--------|-----------------5--------|
--------2-----------2-----|-----------5--------5-----|
-----2-----------------0--|--------5--------------5--|
--0-----------------------|-----7--------------------|
--------------------------|--7-----------------------|

-------------------------,   2nd Ending ---------------
  E  E  E  E  E  E  E  E       E  E  E  E  E  E  E  E
--------------0------------||--------------0-----------|
-----------3-----3---------||-----------1-----1--------|
--------0-----------0-----*||--------0-----------0-----|
-----0-----------------0--*||-----2-----------------0--|
--2------------------------||--3-----------------------|
---------------------------||--------------------------|

-------------------------,     ^  ^  ^  ^  ^  ^  ^  ^
  E  E  E  E  E  E  E  E       E  E  E  E  E  E  E  E
--------------0-----------||---------------------------|
-----------3-----3--------||---------------------------|
--------0-----------0-----||*--2--2--2--2--2--2--2--2--|
-----0-----------------0--||*--0--0--0--0--0--0--0--0--|
--2-----------------------||---0--0--0--0--0--0--0--0--|
--------------------------||---------------------------|

  ^  ^  ^  ^  ^  ^  ^  ^     ^  ^  ^  ^  ^  ^  ^  ^
  E  E  E  E  E  E  E  E     E  E  E  E  E  E  E  E
--------------------------|--------------------------|
--------------------------|--------------------------|
--5--5--5--5--5--5--5-----|--5--5--5--5--5--5--5-----|
--3--3--3--3--3--3--3--0--|--5--5--5--5--5--5--5--0--|
--3--3--3--3--3--3--3--0--|--3--3--3--3--3--3--3--0--|
--------------------------|--------------------------|

  ^  ^  ^  ^  ^  ^  ^  ^
  E  E  E  E  E  E  E  E         Q     Q    E  E  E  E
---------------------------||---------------------------|
---------------------------||---------------------------|
--4--4--4--4--4--4--4-----*||*--------------------------|
--5--5--5--5--5--5--5--0--*||*---x-----x----x--x--x--x--|
--2--2--2--2--2--2--2--0---||---11----11----x--6--x--x--|
---------------------------||----0-----0----0--0--0--0--|

  Q    Q    E  E  E  E   4x  E  E  E  E  E  E  E  E
-------------------------||--------5--------1-----0--|
-------------------------||--------------3-----------|
------------------------*||-----2--------------------|
--x----x----x--x--x--x--*||--0--------0--------0-----|
--3----3----x--6--x--x---||--------------------------|
--0----0----0--0--0--0---||--------------------------|

  E  E  E  E  E  E  E  E     E  E  E  E  E  E  E  E
--------------0-----------|--------------0-----------|
-----------1-----1--------|-----------1-----1--------|
--------2-----------2-----|--------0-----------0-----|
-----2-----------------0--|-----2-----------------0--|
--0-----------------------|--3-----------------------|
--------------------------|--------------------------|

                             ^
  E  E  E  E  E  E  E  E     Q    E  E  E  E  E  E     E  E  E  E  E  E  E  E
--------------0-----------|--1----5--------1-----0--|--------------0-----------|
-----------3-----3--------|--3----------3-----------|-----------1-----1--------|
--------0-----------0-----|--3-------3--------3-----|--------2-----------2-----|
-----0-----------------0--|-------------------------|-----2-----------------0--|
--2-----------------------|-------------------------|--0-----------------------|
--------------------------|-------------------------|--------------------------|

                                                   D.C.
  E  E  E  E  E  E  E  E     E  E  E  E  E  E  E  E
--------------0-----------|--------------0-----------||
-----------1-----1--------|-----------3-----3--------||
--------0-----------0-----|--------0-----------0-----||
-----2-----------------0--|-----0-----------------0--||
--3-----------------------|--2-----------------------||
--------------------------|--------------------------||

Duration Legend
---------------
W - whole
H - half
Q - quarter
E - 8th
S - 16th
T - 32nd
X - 64th
. - note dotted
|-n-|  - n-tuplets

Tablature Legend
----------------
x - dead note
^ - brush up
1st Ending/2nd Ending - Play 1st ending and on repeat
                         skip 1st Ending and jump to 2nd Ending
D.C. - Jump to first measure
Login or Register to remove this ad.

4 comments on Rust Color

Nice tab! awesome song =P

Nice tab! awesome song =P

Wow. You put some work into

Wow. You put some work into this one. Actually, dispite the constant guitar in the theme, this is a song I never would've even thought of... Strange. On my part.

I like it... I think I'll practice it.

The Song is rocking always

5

dude good work heh I was waiting for somone to try this lil beauty. I attempted but I failed miserably but i gave it a shot

Nice to see sum Star ocean 3

Nice to see sum Star ocean 3 tabs! My room isn't big enough to give my acoustic that my reverb tho :(