Ads

Promise (Silent Hill 2) Guitar Tab

Submitted: Oct 02, 2008 by tylersaintcool (Last updated: Nov 14, 2009)

4.833335
Average: 4.8 (6 votes)
Download | Listen
Game: Silent Hill 2
Composer(s): Akira Yamaoka
Style: 2 or more instruments, Transcription

AutoScroll: Slow | Medium | Fast
Promise
from Silent Hill 2
Music by: Akira Yamaoka
Tabbed by: Tyler
Tuning: Standard (E, A, D, G, B, e)
Key: A minor

Intro/main riff:
e|--------------------------------------------------|
B|--------------------------------------------------|
G|--------5-----------5-----------5-----------4-----|
D|-----2-----2-----3-----3-----5-----5-----5-----5--|
A|--0-----------0-----------3-----------5-----------|
E|--------------------------------------------------|

Lead fill (over main riff):
e|--10--12-------15----------------12-----------|
B|-------------------13--------10-------13------|
G|------------------------------------------12--|
D|----------------------------------------------|
A|----------------------------------------------|
E|----------------------------------------------|



Lead:
e|-----------------------------------------------------------------|
B|----------------------------------------------------13-13-12-----|
G|--/-12-12-12-10-9~~~---7-7-9--5---/12-12-12-14-12------------12--|
D|-----------------------------------------------------------------|
A|-----------------------------------------------------------------|
E|-----------------------------------------------------------------|

e|-----------------------------------------------------------------|
B|----------------------------------------------------13-13-12-----|
G|--/-12-12-12-10-9~~~---7-7-9--5---/12-12-12-14-12----------------|
D|-----------------------------------------------------------------|
A|-----------------------------------------------------------------|
E|-----------------------------------------------------------------|

This riff follows 
e|--------------------------------------------------|
B|--------------------------------------------------|
G|--------9-----------9-----------7-----------7-----|
D|-----7-----7-----7-----7-----7-----7-----7-----7--|
A|--0-----------8-----------9-----------8-----------|
E|--------------------------------------------------|

Lead (continued):
e|------------------------------------------------------------------12--|
B|--13---12-10-12-13--15--13-12--13-12-10--12-13--12-13-15---13-15------|
G|----------------------------------------------------------------------|
D|----------------------------------------------------------------------|
A|----------------------------------------------------------------------|
E|----------------------------------------------------------------------|

e|------------------------------------------------------------------12---------|
B|--13---12-10-12-13--15--13-12--13-12-10--12-13--12-13-15---13-15------10~~~--|
G|-----------------------------------------------------------------------------|
D|-----------------------------------------------------------------------------|
A|-----------------------------------------------------------------------------|
E|-----------------------------------------------------------------------------|

Lead fill (over main riff):
e|--10--12-------15----------------12-----------|
B|-------------------13--------10-------13------|
G|------------------------------------------12--|
D|----------------------------------------------|
A|----------------------------------------------|
E|----------------------------------------------|


(repeated lead, halfway through the song and progression changes):
e|------------------------------------------------------------------12---------|
B|--13---12-10-12-13--15--13-12--13-12-10--12-13--12-13-15---13-15-------------|
G|-----------------------------------------------------------------------------|
D|-----------------------------------------------------------------------------|
A|-----------------------------------------------------------------------------|
E|-----------------------------------------------------------------------------|

e|----------------3--0--(0)--|
B|-------------0-----0--(0)--|
G|-------------------0--(0)--|
D|--2---2-2-2--------2--(2)--|
A|--2---2-2-2--------3--(3)--|
E|--0---0-0-0----------------|
repeat

Solo:

e|----------------------------------------------------------------------------------|
B|----------------------------------------------------------------------------------|
G|-----9--11-11h12~~~-----9--11-11h12~~~-----9--11-11h12~~~----9--11-11h12~~~---11--|
D|--9------------------9------------------9------------------9----------------------|
A|----------------------------------------------------------------------------------|
E|----------------------------------------------------------------------------------|
repeat

e|----------------------------------------------------------------------------------------|
B|---------10-10h12~~~---------10-10h12~~~----------10-10h12~~~---------10-10h12~~~---10--|
G|--11-12---------------11-12----------------11-12---------------11-12--------------------|
D|----------------------------------------------------------------------------------------|
A|----------------------------------------------------------------------------------------|
E|----------------------------------------------------------------------------------------|

e|----------------3--0--(0)--|
B|-------------0-----0--(0)--|
G|-------------------0--(0)--|
D|--2---2-2-2--------2--(2)--|
A|--2---2-2-2--------3--(3)--|
E|--0---0-0-0----------------|
repeat

e|--------------------------------------------------|
B|--------------------------------------------------|
G|--------5-----------5-----------5-----------4-----|
D|-----2-----2-----3-----3-----5-----5-----5-----5--|
A|--0-----------0-----------3-----------5-----------|
E|--------------------------------------------------|
repeat

e|---------------------------------------------------------------------------0-(0)--|
B|---------------------------------------------------------------------------0-(0)--|
G|--------5-------------5----------------5---------------------4-------------2-(2)--|
D|-----2-----2------3------3--------5---------5----------5-----------5-------2-(2)--|
A|--0-----------0--------------3-------------------5-------------------------0-(0)--|
E|----------------------------------------------------------------------------------
Login or Register to remove this ad.

4 comments on Promise

Very good tab. Sounds exactly

5

Very good tab. Sounds exactly like the song. Great work

A few mistakes.

4

you got all the notes alright. the mistake is in the sliding though...some of the notes are meant to be slid from one to the other, except the two are on different strings. maybe remake this with the sliding and it might make it easier to understand...proper timing probably would too. other than that, no wrong notes, so its a pretty good tab.

Wow!

One of the best tab in net.
I wish i had found it earlier :P
Thanks.
If someone wants to watch my cover on youtube (my tab looks similar to this) here is the link:
http://www.youtube.com/watch?v=u6OuJFBABxo

Missing one note

5

There's a 7(D) missing on the G string in the lead guitars part between the 7(D) to 5()C part