The Farthest Land (Shadow of the Colossus) Guitar Tab

Submitted: Mar 21, 2008 by archard (Last updated: Oct 04, 2009)

4.954545
Average: 5 (22 votes)
Download | Listen
Game: Shadow of the Colossus
Composer(s): Kow Otani
Style: Arrangement, Fingerstyle

AutoScroll: Slow | Medium | Fast
The Farthest Land
Shadow of the Colossus
Composed by Kow Otani
Arranged by  ()
3/21/08



     E  E  E  E  E  E     E  E  E  E  E  E     E  E  E  E  E  E   
E||--------------------|--------------------|--------------------|
B||--------3--------3--|--------3--------3--|--------3--------3--|
G||-----4--------4-----|-----4--------4-----|-----4--------4-----|
D||--------------------|--------------------|--------------------|
A||--------------------|--------------------|--------------------|
E||--0--------2--------|--3--------2--------|--0--------2--------|


  E  E  E  E  E  E     E.  S S S E  E  E     E.  S E  Q.      
--------0-----------|------0-2-3-2--0-----|--0---------------|
-----1--------1-----|--0---------------3--|------3----0------|
--------------------|---------------------|--------2---------|
--------------------|---------------------|------------------|
--0-----------------|---------------------|------------------|
-----------3-----2--|--0---------2--------|--3--------2------|


  E.  S E  Q.        E.  S E  Q    E     E.  S S S E  E  E     E.  S E  Q.      
------------------|--0----------------|------0-2-3-2--0-----|--5---3-2--0------|
--1---0----0------|------3-1--0-------|--0---------------3--|------------------|
--------2---------|----------------2--|---------------------|------------------|
------------------|-------------------|---------------------|------------------|
------------------|--0----------------|---------------------|------------------|
--0--------2------|-----------3-------|--0---------2--------|--3--------2------|


  E.  S E  Q.        E.  S E  E  E  E     Q    E  Q    E     Q    E  Q    E   
--2---0----0------|--------------0--2--|--3-------3----5--|--7----5--3----2--|
--------3---------|------0-1--3--------|-------3----------|------------------|
------------------|--2-----------------|------------------|------------------|
------------------|--------------------|------------------|------------------|
------------------|--0-----------------|--2---------------|------------------|
--0--------2------|-----------3--------|------------------|--7---------------|


  Q    E  Q    E     Q    E  Q    E     Q    E  Q    E     Q    E  Q    E   
--0-------0----1--|--3----1--0-------|------------------|------------------|
-------3----------|---------------3--|--1-------1----3--|--4----3--1-------|
------------------|------------------|-------3----------|---------------3--|
------------------|------------------|------------------|------------------|
--0---------------|--0---------------|------------------|------------------|
------------------|------------------|--3---------------|--3---------------|


  E  E  E  E  E  E     E  E  E  E  E  E     E  E  E  E  E  E   
--------------------|--------------------|--------------------|
--3-----------------|--------------------|--------------------|
--------------------|--2--------0--------|--2-----------------|
--------0--------2--|--------0--------0--|-----------------0--|
-----0--------0-----|-----0--------0-----|-----0--4-----0-----|
--1--------1--------|--0--------0--------|--0--------0--------|


  E  E  E  E  E  E     E.  S E  E  E  E     Q    E  Q.      
--------------0--3--|--5---5-5--5--3--1--|--0----1--3------|
--------------------|--6---6-6--6--5--3--|--1----3--5------|
--------------------|--------------------|-----------------|
-----2--0-----------|--0-----------------|-----------------|
-----------4--------|--------------------|--0--------------|
--0-----------------|--------------------|-----------------|


  E  S S E  E  E  E     Q    E  Q.        E  S S E  E  E  E   
-----1-1-1--1--0-----|----------0------|-----5-5-5--5--3--1--|
-----3-3-3--3--1--3--|--1----3--1------|-----6-6-6--6--5--3--|
------------------3--|--2----3---------|---------------------|
---------------------|-----------------|--0------------------|
--1------------------|--0--------------|---------------------|
---------------------|-----------------|---------------------|


  Q    E  Q    E      Q.     Q.        E  S S E  E  E  S S     Q     E  Q.      
--0----1--3----5--|---8------7------|--L---------------5-7-|---8----10--7------|
--1----3--5----6--|--10------8------|--L-------------------|--10----12--8------|
------------------|-----------------|----------------------|-------------------|
------------------|-----------------|--0-------------------|-------------------|
--0---------------|-----------------|-----3-2-0------------|-------------------|
------------------|---0-------------|------------3--1------|-------------------|


  Q.     S S S S E     E.  S E  E  E  E     Q    E  Q.      
--L-----------------|--5---5-5--5--3--1--|--0----1--3------|
--L-----------------|--6---6-6--6--5--3--|--1----3--5------|
--------------------|--------------------|-----------------|
---------2-0--------|--0-----------------|-----------------|
-------------3-2-0--|--------------------|--0--------------|
--------------------|--------------------|-----------------|


  E  S S E  E  E  E     Q.     Q.        E  S S E  Q    E     Q.     Q    S S  
-----1-1-1--1--0-----|----------------|--------------------|------------------|
-----3-3-3--3--1--3--|--1-------------|-----1-1-1--1----1--|---------1------1-|
------------------3--|--2------3------|-----2-2-2--2----2--|--2------2----2---|
---------------------|---------5------|--------------------|--3---------------|
--1------------------|----------------|--0-----------------|------------------|
---------------------|----------------|--------------------|------------------|


  H        E  S S    H.              Q    E  Q    E     Q.     E  E  E   
------------------|--0------------|--5----3--1----0--|------------------|
--3-----------1-3-|--2------------|------------------|--3------2--------|
--4---------------|--2------------|------------------|------------------|
------------------|--2------------|------------------|------------------|
------------------|--0------------|------------------|------------------|
--3---------------|---------------|------------------|---------------2--|


  E.  S S S E  E  E     E.  S E  Q.        E.  S E  Q.        E.  S E  Q    E   
------0-2-3-2--0-----|--0---------------|------------------|--0----------------|
--0---------------3--|------3----0------|--1---0----0------|------3-1--0-------|
---------------------|--------2---------|--------2---------|----------------2--|
---------------------|------------------|------------------|-------------------|
---------------------|------------------|------------------|--0----------------|
--0---------2--------|--3--------2------|--0--------2------|-----------3-------|


  E.  S S S E  E  E     E.  S E  Q.        E.  S E  Q.      
------0-2-3-2--0-----|--5---3-2--0------|--2---0----0------|
--0---------------3--|------------------|--------3---------|
---------------------|------------------|------------------|
---------------------|------------------|------------------|
---------------------|------------------|------------------|
--0---------2--------|--3--------2------|--0--------2------|


  E.  S E  E  E  E     Q    E  E  E  E     Q.     Q    E     Q    E  Q    E   
--------------0--2--|--3----5--7--5--3--|-----------------|-------5--3-------|
------0-1--3--------|-------------------|--3------0----1--|--3------------3--|
--2-----------------|-------------------|-----------------|------------------|
--------------------|-------------------|-----------------|------------------|
--0-----------------|----------------0--|--2------2----0--|------------------|
-----------3--------|--3-------3--------|-----------------|--3-------3----2--|


  Q    E  Q.        Q    E  E  E  E     Q.     Q    E     Q    E  Q    E   
-----------------|--3----5--7--5--3--|-----------------|-------5--3-------|
--0----1--3------|-------------------|--3------0----1--|--3------------3--|
-----------------|-------------------|-----------------|------------------|
-----------------|----------4--------|-----------------|------------------|
-----------------|-------------------|-----------------|------------------|
--0-------0------|--0----------------|--3------2-------|--0-------2-------|


  Q    E  Q.        E.  S S S Q.        Q    E  Q.        E.  S S S Q.      
-----------------|-------------------|-----------------|-------------------|
--0----1--3------|--1---0-----0------|-------3--0------|--1---0-----0------|
-----------------|--------2-0--------|--2--------------|--------2-0--------|
-----------------|-------------------|-----------------|-------------------|
-----------------|-------------------|-----------------|-------------------|
--3-------2------|--0---------2------|--3-------2------|--0---------2------|


                                                                  NH      
  Q    E  Q    E     Q.     Q.        Q.     Q.        E  E  E    Q.      
------------------|--0-------------|--L-------------|--------------------|
-------3--0----3--|----------------|----------------|-------------7------|
--2---------------|----------------|----------------|-------------7------|
------------------|----------------|----------------|--------2--<>7------|
------------------|----------------|----------------|-----2--------------|
--3-------2-------|--0------2------|--3------2------|--0-----------------|


  ^                              
  H.              H.             
--2------------|--L------------||
--3------------|--L------------||
--2------------|--L------------||
--0------------|--L------------||
---------------|---------------||
---------------|---------------||




Duration Legend
---------------
W - whole
H - half
Q - quarter
E - 8th
S - 16th
. - note dotted


Tablature Legend
----------------
L - tied note
Login or Register to remove this ad.

4 comments on The Farthest Land

Excellent, archard. I

5

Excellent, archard. I definitely remember this song. I actually got about 25% finished with making a tab for this, but yeah...great job!

so excellent

5

so excellent

Absolutely amazing...

5

This tab is absolutely incredible. Both guys before me used the word "excellent." But in this case, only one word can describe this tab. Perfect.

Wow

12.75

I would've never imagined the day that I find a decent version of TAB for this song.
And here it is, and it's perfect!

Gametabs.net rocks man!!

=D