2nd Battle Theme (Romancing SaGa) Bass Tab

Submitted: Oct 02, 2007 by PolakDave (Last updated: May 07, 2008)

0
Download | Listen
Game: Romancing SaGa
Composer(s): Kenji Ito
Style: Transcription

AutoScroll: Slow | Medium | Fast
Bass
     E  E  E  E  E  E  E  E     E  E  E  E  E  E  E  E
G||--------------------------|--------------------------|
D||--------------------------|--------------------------|
A||--------------3-----------|--------------3-----------|
E||--3--5--6--3-----6--5--6--|--3--5--6--3-----6--5--6--|

  E  E  E  E  E  E  E  E     E  E  E  E  E  E  E  E
--------------------------|--------------------------|
--------------------------|--------------------------|
--------------3-----------|--------------3-----------|
--3--5--6--3-----6--5--6--|--3--5--6--3-----6--5--6--|

  E  E  E  E  E  E  E  E     E  E  E  E  E  E  E  E
--------------------------|--------------------------|
--------------------------|--------------------------|
--------------------------|--------------------------|
--3--3--3--3--3--3--3--5--|--6--6--6--6--6--6--6--6--|

  E  E  E  E  E  E  E  E     E  E  E  E  E  E  E  E
--------------------------|--------------------------|
--------------------------|--------------------------|
--------------------------|--5--5--5--5--5--5--5--5--|
--1--1--1--1--1--1--1--1--|--------------------------|

  E  E  E  E  E  E  E  E     E  E  E  E  E  E  E  E     H        H
--------------------------|--------------------------|--------------------|
--------------------------|--------------------------|--------------------|
--------------------------|--------------------------|--3-----------------|
--3--3--3--3--3--3--3--3--|--6--6--6--6--6--6--6--6--|-----------3--------|

  H.           Q       E  E  E  E  E  E  E  E     E  E  E  E  E  E  E  E
--------------------|--------------------------|--------------------------|
--------------------|--------------------------|--------------------------|
--------------------|--------------------------|--------------------------|
--5-----------------|--3-----3-----3-----3-----|--6-----6-----6-----6-----|

  E  E  E  E  E  E  E  E     E  E  E  E  E  E  E  E
--------------------------|--------------------------|
--------------------------|--------------------------|
--------------------------|--5-----5-----5-----5-----|
--1-----1-----1-----1-----|--------------------------|

  |----3----|
  Q    Q    Q    H           H.           Q       E  E  E  E  E  E  E  E
--------------------------|--------------------|--------------------------|
--------------------------|--------------------|--------------------------|
--------------------------|--------------------|-----5-----5-----5-----5--|
--3----6----3----3--------|--6------------6----|--3-----3-----3-----3-----|

  E  E  E  E  E  E  E  E     E  E  E  E  E  E  E  E
--------------------------|--------------------------|
--------------------------|-----5-----5-----5-----5--|
-----3-----3-----3-----3--|--3-----3-----3-----3-----|
--1-----1-----1-----1-----|--------------------------|

                                       |----3----|
  E  E  E  E  E  E  E  E     Q    Q    Q    Q    Q       H.           Q
--------------------------|---------------------------|--------------------|
--------------------------|-----------------5----3----|--------------------|
-----4-----4-----4-----4--|--5---------5--------------|--5------------5----|
--2-----2-----2-----2-----|-------3-------------------|--------------------|

  E  E  E  E  E  E  E  E     E  E  E  E  E  E  E  E
--------------------------|--------------------------|
--------------------------|--------------------------|
--------------3-----------|--------------3-----------|
--3--5--6--3-----6--5--6--|--3--5--6--3-----6--5--6--|

  E  E  E  E  E  E  E  E     E  E  E  E  E  E  E  E
--------------------------|--------------------------|
--------------------------|--------------------------|
--------------3-----------|--------------3-----------|
--3--5--6--3-----6--5--6--|--3--5--6--3-----6--5--6--|

  E  E  E  E  E  E  E  E     E  E  E  E  E  E  E  E
--------------------------|--------------------------|
--------------------------|--------------------------|
--------------3-----------|--------------3-----------|
--3--5--6--3-----6--5--6--|--3--5--6--3-----6--5--6--|

  E  E  E  E  E  E  E  E     E  E  E  E  E  E  E  E
--------------------------|--------------------------|
--------------------------|--------------------------|
--------------3-----------|--------------3-----------|
--3--5--6--3-----6--5--6--|--3--5--6--3-----6--5--6--|

  E  E  E  E  E  E  E  E     E  E  E  E  E  E  E  E
--------------------------|--------------------------|
--------------------------|--------------------------|
--------------0-----------|--------------0-----------|
--0--2--3--0-----3--2--3--|--0--2--3--0-----3--2--3--|

  E  E  E  E  E  E  E  E     E  E  E  E  E  E  E  E     H        E  E  E  E
--------------------------|--------------------------|-----------------------|
--------------------------|--------------------------|-----------------------|
--------------0-----------|--------------0-----------|-----------------------|
--0--2--3--0-----3--2--3--|--0--2--3--0-----3--2--3--|--5--------L--1--3--5--|

  Q    Q    Q    Q       Q    Q    Q    Q       Q    Q    Q    Q
----------------------|----------------------|----------------------|
----------------------|----------------------|----------------------|
----------------------|------------3----3----|--5----5--------------|
--6----5----3----1----|--3----3--------------|------------4----4----|

  E  E  E  E  E  E  E  E     E  E  E  E  E  E  E  E
--------------------------|--------------------------|
--------------------------|--------------------------|
-----3-----3-----3-----3--|-----5-----5-----5-----5--|
--1-----1-----1-----1-----|--3-----3-----3-----3-----|

  E  E  E  E  E  E  E  E     H        E  E  Q       E  E  E  E  E  E  E  E
--------------------------|----------------------|--------------------------|
--------------------------|----------------------|--------------------------|
-----5-----5-----5-----5--|--5--------------5----|--------------3-----------|
--3-----3-----3-----3-----|-----------3--3-------|--3--5--6--3-----6--5--6--|

  E  E  E  E  E  E  E  E     E  E  E  E  E  E  E  E
--------------------------|--------------------------|
--------------------------|--------------------------|
--------------3-----------|--------------3-----------|
--3--5--6--3-----6--5--6--|--3--5--6--3-----6--5--6--|

  E  E  E  E  E  E  E  E     E  E  E  E  E  E  E  E
--------------------------|--------------------------|
--------------------------|--------------------------|
--------------3-----------|--------------0-----------|
--3--5--6--3-----6--5--6--|--0--2--3--0-----3--2--3--|

  E  E  E  E  E  E  E  E     E  E  E  E  E  E  E  E
--------------------------|--------------------------|
--------------------------|--------------------------|
--------------0-----------|--------------0-----------|
--0--2--3--0-----3--2--3--|--0--2--3--0-----3--2--3--|

  E  E  E  E  E  E  E  E     H        E  E  E  E     Q    Q    Q    Q
--------------------------|-----------------------|----------------------|
--------------------------|-----------------------|----------------------|
--------------0-----------|-----------------------|----------------------|
--0--2--3--0-----3--2--3--|--5--------L--1--3--5--|--6----5----3----1----|

  H        E  E  E  E     Q    Q    Q    Q       Q    Q    Q    Q
-----------------------|----------------------|----------------------|
-----------------------|----------------------|----------------------|
-----------------------|--3----1----3----3----|--5----5----5----5----|
--3--------L--5--3--5--|----------------------|----------------------|

                                        >
  Q    Q    Q    Q       Q    Q    Q    Q
----------------------|----------------------|-------|
----------------------|----------------------|-------|
--5----5----5----5----|--5----5----5----5----|-------|
----------------------|----------------------|-------|

  E  E  E  E  E  E  E  E     E  E  E  E  E  E  E  E
--------------------------|--------------------------||
--------------------------|--------------------------||
--------------------------|--------------------------||
--3--3--3--3--3--3--3--5--|--6--6--6--6--6--6--6--6--||

Duration Legend
---------------
W - whole
H - half
Q - quarter
E - 8th
S - 16th
T - 32nd
X - 64th
. - note dotted
|-n-|  - n-tuplets
Login or Register to remove this ad.