2nd Battle Theme (Romancing SaGa) Guitar Tab

Submitted: Oct 02, 2007 by PolakDave

0
Download | Listen
Game: Romancing SaGa
Composer(s): Kenji Ito
Style: Transcription

AutoScroll: Slow | Medium | Fast
Strings
                             Q    Q    Q    S S S S    H        E  E  E  E
E||-------|-------|-------|---------------------3-5-|--6--------L--5--3--5--|
B||-------|-------|-------|-------------------3-----|-----------------------|
G||-------|-------|-------|-----------------3-------|-----------------------|
D||-------|-------|-------|-------------------------|-----------------------|
A||-------|-------|-------|-------------------------|-----------------------|
E||-------|-------|-------|-------------------------|-----------------------|

  H        E  E  E  E     Q    E  E  Q    Q       E  E  Q    E  E  E  E
--6--------L--6--8--6--|--5----5--6--8---------|-------------------------|
-----------------------|------------------6----|--6--4--3----L--3--4--6--|
-----------------------|-----------------------|-------------------------|
-----------------------|-----------------------|-------------------------|
-----------------------|-----------------------|-------------------------|
-----------------------|-----------------------|-------------------------|

  H        E  E  E  E     Q    Q    Q    Q       Q    Q    Q    Q
--3--------L--3--------|-------3----5----6----|--8----6----5----6----|
-----------------6--4--|--3-------------------|----------------------|
-----------------------|----------------------|----------------------|
-----------------------|----------------------|----------------------|
-----------------------|----------------------|----------------------|
-----------------------|----------------------|----------------------|

  H        E  E  E  E     H        E  E  E  E     H        E  E  E  E
--5--------------3--5--|--6--------L--5--3--5--|--6--------L--6--8--6--|
--------------3--------|-----------------------|-----------------------|
-----------------------|-----------------------|-----------------------|
-----------------------|-----------------------|-----------------------|
-----------------------|-----------------------|-----------------------|
-----------------------|-----------------------|-----------------------|

  Q    E  E  E  E  Q        Q     Q     E  E  E   E
--5----5--6--8----------|--11----10-----L--7--8--10--|
-------------------6----|----------------------------|
------------------------|----------------------------|
------------------------|----------------------------|
------------------------|----------------------------|
------------------------|----------------------------|

   H         E   E  E   E      Q     Q    Q     Q        Q.      E  H
--11---------L--10--8------|--------10----8----10----|-----------------------|
-----------------------11--|--10---------------------|--11------10--8--------|
---------------------------|-------------------------|-----------------------|
---------------------------|-------------------------|-----------------------|
---------------------------|-------------------------|-----------------------|
---------------------------|-------------------------|-----------------------|

  Q    Q     Q     Q       E   E   E   E  H           Q     Q     Q    Q
------------------------|--8--------------8--------|--9----------------9----|
--L----8----10----11----|-----11--10--11-----------|-------11----10---------|
------------------------|--------------------------|------------------------|
------------------------|--------------------------|------------------------|
------------------------|--------------------------|------------------------|
------------------------|--------------------------|------------------------|

   W                    H.           Q       W
--10----------------|---L-----------------|-------------------|
--------------------|---------------------|-------------------|
--------------------|---------------------|-------------------|
--------------------|---------------------|-------------------|
--------------------|---------------------|-------------------|
--------------------|---------------------|-------------------|

  W                   W                   W
-------------------|-------------------|-------------------|
-------------------|-------------------|-------------------|
-------------------|-------------------|-------------------|
-------------------|-------------------|-------------------|
-------------------|-------------------|-------------------|
-------------------|-------------------|-------------------|

                         |----3----|    |----3----|
  Q    Q    Q    Q       Q    Q    Q    Q    Q    Q       Q    H.
----------------------|--------------------------------|--------------------|
-----------------8----|--6---------6----5---------5----|--------------------|
------------7---------|-------7--------------5---------|--7-----------------|
-------5--------------|--------------------------------|-------5------------|
----------------------|--------------------------------|--------------------|
----------------------|--------------------------------|--------------------|

                                             |----3----|    |----3----|
  W                   Q    Q    Q    Q       Q    Q    Q    Q    Q    Q
-------------------|----------------------|--------------------------------|
-------------------|----------------------|--------------------------------|
-------------------|-------7---------5----|-------5-------------------5----|
--L----------------|------------5---------|--8---------8----7----8---------|
-------------------|----------------------|--------------------------------|
-------------------|----------------------|--------------------------------|

  Q    H.              H.           S S S S     H         E   E   E  E
--------------------|-----------------------|------------------------8--|
--------------------|-------------------6-8-|--10---------L--10--11-----|
--------------------|---------------7-8-----|---------------------------|
--8----5------------|--L--------------------|---------------------------|
--------------------|-----------------------|---------------------------|
--------------------|-----------------------|---------------------------|

   Q    Q     Q     Q       Q     E   E  E   E   E  E
--10----8----------------|---------------8-------------|
-------------11----10----|--8----10--11-----11--10--8--|
-------------------------|-----------------------------|
-------------------------|-----------------------------|
-------------------------|-----------------------------|
-------------------------|-----------------------------|

   Q    E   E   E   E  E   E     H        E  E   E  E      Q    H        Q
------------------------------|------------------------|----------------------|
--------8--10--11--10--8------|---------------------8--|--10-------------8----|
--11----------------------10--|--8--------L--8--10-----|--------9-------------|
------------------------------|------------------------|----------------------|
------------------------------|------------------------|----------------------|
------------------------------|------------------------|----------------------|

   W                   W                   Q    Q    Q    Q
--------------------|-------------------|----------------------|
--------------------|-------------------|-----------------8----|
--11----------------|-------------------|------------7---------|
--------------------|-------------------|-------5--------------|
--------------------|-------------------|----------------------|
--------------------|-------------------|----------------------|

  |----3----|    |----3----|
  Q    Q    Q    Q    Q    Q       Q    H.              W
--------------------------------|--------------------|-------------------|
--6---------6----5---------5----|--------------------|-------------------|
-------7--------------5---------|--7-----------------|-------------------|
--------------------------------|-------5------------|--L----------------|
--------------------------------|--------------------|-------------------|
--------------------------------|--------------------|-------------------|

                         |----3----|    |----3----|
  Q    Q    Q    Q       Q    Q    Q    Q    Q    Q       Q    H.
----------------------|--------------------------------|--------------------|
----------------------|--------------------------------|--------------------|
-------7---------5----|-------5-------------------5----|--------------------|
------------5---------|--8---------8----7----8---------|--8----5------------|
----------------------|--------------------------------|--------------------|
----------------------|--------------------------------|--------------------|

  H.           S S S S     H         E   E   E  E      Q    Q     Q     Q
-----------------------|------------------------8--|--10----8----------------|
-------------------6-8-|--10---------L--10--11-----|-------------11----10----|
---------------7-8-----|---------------------------|-------------------------|
--L--------------------|---------------------------|-------------------------|
-----------------------|---------------------------|-------------------------|
-----------------------|---------------------------|-------------------------|

  H        E  E   E   E     Q     Q     Q    Q        H         E   E   E   E
-------------------------|--8----------------9----|--10---------L--11--13--11--|
--8--------L--8--10--11--|-------11----10---------|----------------------------|
-------------------------|------------------------|----------------------------|
-------------------------|------------------------|----------------------------|
-------------------------|------------------------|----------------------------|
-------------------------|------------------------|----------------------------|

   H         E  E  E  E      W
--10---------L--9--5--9--|--10----------------|-------------------|
-------------------------|--------------------|-------------------|
-------------------------|--------------------|-------------------|
-------------------------|--------------------|-------------------|
-------------------------|--------------------|-------------------|
-------------------------|--------------------|-------------------|

  H        E  E  E  E     H        E  E  E  E
--6--------L--5--3--5--|--6--------L--6--8--6--||
-----------------------|-----------------------||
-----------------------|-----------------------||
-----------------------|-----------------------||
-----------------------|-----------------------||
-----------------------|-----------------------||

Duration Legend
---------------
W - whole
H - half
Q - quarter
E - 8th
S - 16th
T - 32nd
X - 64th
. - note dotted
|-n-|  - n-tuplets
Login or Register to remove this ad.