Ads

Wipe Away The Tears (Romancing SaGa: Minstrel Song) Guitar Tab

Submitted: Oct 02, 2007 by Kabukibear (Last updated: Nov 27, 2009)

5
Average: 5 (2 votes)
Download | Listen
Game: Romancing SaGa: Minstrel Song
Composer(s): Kenji Ito
Style: 2 or more instruments, Fingerstyle, Transcription

AutoScroll: Slow | Medium | Fast
Wipe Away The Tears
~Romancing Saga - Minstrel Song~
Composed by: Kenji Ito
Transcribed by: Justin Lincoln

Guitar 1

     E  E  E  E  H           H        E   E   E  E     W
E||-----2--3--5--7--------|--L--------7------10--7--|-------------------|
B||--0--------------------|--------------10---------|--8----------------|
G||-----------------------|-------------------------|-------------------|
D||-----------------------|-------------------------|-------------------|
A||-----------------------|-------------------------|-------------------|
E||-----------------------|-------------------------|-------------------|

  H        E  E  E  E     H.           E  E       Q.     E  Q    Q
-----------------5-----|---------------------|------------------------|
--L--------7--5--------|---------------------|------------------------|
--------------------7--|--5------------5--7--|--7g9------9--7----5----|
-----------------------|---------------------|------------------------|
-----------------------|---------------------|------------------------|
-----------------------|---------------------|------------------------|

  Q.     E  Q    Q         H        H           E  E  E  E  H
----------------------|----------------------|-----2--3--5--7--------|
----------------------|----------------------|--0--------------------|
--4------4--3----6----|--6g9--------8--------|-----------------------|
----------------------|----------------------|-----------------------|
----------------------|----------------------|-----------------------|
----------------------|----------------------|-----------------------|

  H        E   E   E  E     W                   H        E  E  E  E
--L--------7------10--7--|-------------------|-----------------5-----|
--------------10---------|--8----------------|--L--------7--5--------|
-------------------------|-------------------|--------------------7--|
-------------------------|-------------------|-----------------------|
-------------------------|-------------------|-----------------------|
-------------------------|-------------------|-----------------------|

  H        E  E  E    E     Q    Q    Q    Q       W
--------------------2g3--|--2----0---------2----|--0----------------|
-------------------------|------------3---------|-------------------|
--5--------L--4--5-------|----------------------|-------------------|
-------------------------|----------------------|-------------------|
-------------------------|----------------------|-------------------|
-------------------------|----------------------|-------------------|

  W                   E  E   E   E  Q    E   E     Q    H.
-------------------|----------------8----7------|--7-----------------|
-------------------|------------10----------10--|-------8------------|
-------------------|--7--9--10------------------|--------------------|
-------------------|----------------------------|--------------------|
-------------------|----------------------------|--------------------|
-------------------|----------------------------|--------------------|

  E   E   E  E   Q     E  E      W                   E  E   E   E  Q    E   E
-------------8--12----10--8--|--10----------------|----------------8----7------|
---------10------------------|--------------------|------------10----------10--|
--9--10----------------------|--------------------|--7--9--10------------------|
-----------------------------|--------------------|----------------------------|
-----------------------------|--------------------|----------------------------|
-----------------------------|--------------------|----------------------------|

                                                   1st Ending---------
  Q    H.              E   E   E  E   Q     E  E     W
--7-----------------|-------------8--12----10--8--|--7-----------------||
-------8------------|---------10------------------|--------------------||
--------------------|--9--10----------------------|-------------------*||
--------------------|-----------------------------|-------------------*||
--------------------|-----------------------------|--------------------||
--------------------|-----------------------------|--------------------||

2nd Ending---------    ^
  W                    W
--7----------------|--11----------------||
-------------------|--12----------------||
-------------------|--11----------------||
-------------------|--------------------||
-------------------|--------------------||
-------------------|--------------------||

Duration Legend
---------------
W - whole
H - half
Q - quarter
E - 8th
S - 16th
T - 32nd
X - 64th
. - note dotted
|-n-|  - n-tuplets





Wipe Away The Tears
~Romancing Saga - Minstrel Song~
Composed by: Kenji Ito
Transcribed by: Justin Lincoln

Guitar 2

     E  E  E  E  E  E  E  E     E  E  E  E  E  E  E  E
E||--------------0-----------|--------------2-----------|
B||--------0-----------0-----|--------3-----------3-----|
G||-----0-----0-----0-----0--|-----4-----4-----4-----4--|
D||--------------------------|--0-----------------------|
A||--------------------------|--------------------------|
E||--0-----------------------|--------------------------|

  E  E  E  E  E  E  E  E     E  E  E  E  E  E  E  E
--------------3-----------|--------------2-----------|
--------5-----------5-----|--------3-----------3-----|
-----4-----4-----4-----4--|-----2-----2-----2-----2--|
--------------------------|--------------------------|
--3-----------------------|--2-----------------------|
--------------------------|--------------------------|

  E  E  E  E  E  E  E  E     E  E  E  E  E  E  E  E
--------------0-----------|--------------2-----------|
--------1-----------1-----|--------1-----------1-----|
-----0-----0-----0-----0--|-----2-----2-----2-----2--|
--------------------------|--0-----------------------|
--0-----------------------|--------------------------|
--------------------------|--------------------------|

  E  E  E  E  E  E  E  E     E  E  E  E  E  E  E  E
--------------2--------2--|--------------------------|
--------2-----------2-----|-----------2-----------4--|
-----4-----4-----3--------|--------2-----------2-----|
--------------------------|-----2-----------4--------|
--------------------------|--2-----------2-----------|
--2-----------------------|--------------------------|

  E  E  E  E  E  E  E  E     E  E  E  E  E  E  E  E
--------------0-----------|--------------2-----------|
--------0-----------0-----|--------3-----------3-----|
-----0-----0-----0-----0--|-----4-----4-----4-----4--|
--------------------------|--0-----------------------|
--------------------------|--------------------------|
--0-----------------------|--------------------------|

  E  E  E  E  E  E  E  E     E  E  E  E  E  E  E  E
--------------3-----------|--------------2-----------|
--------5-----------5-----|--------3-----------3-----|
-----4-----4-----4-----4--|-----2-----2-----2-----2--|
--------------------------|--------------------------|
--3-----------------------|--2-----------------------|
--------------------------|--------------------------|

  E  E  E  E  E  E  E  E     E  E  E  E  E  E  E  E
--------------0-----------|--------------2-----------|
--------1-----------1-----|--------3-----------3-----|
-----0-----0-----0-----0--|-----2-----2-----2-----2--|
--------------------------|--------------------------|
--0-----------------------|--2-----------------------|
--------------------------|--------------------------|

  E  E  E  E  E  E  E  E     E  E  E  E  E  E  E  E
--------------0-----------|--------------0-----------|
--------1-----------1-----|--------2-----------2-----|
-----0-----0-----0-----0--|-----0-----0-----0-----0--|
--------------------------|--------------------------|
--3-----------------------|--0-----------------------|
--------------------------|--------------------------|

  E  E  E  E  E  E  E  E     E  E  E  E  E  E  E  E
--------------0-----------|--------------3-----------|
--------1-----------1-----|--------0-----------0-----|
-----2-----2-----2-----2--|-----0-----0-----0-----0--|
--0-----------------------|--------------------------|
--------------------------|--------------------------|
--------------------------|--3-----------------------|

  E  E  E  E  E  E  E  E     E  E  E  E  E  E  E  E
--------------1-----------|--------------1-----------|
--------1-----------1-----|--------0-----------0-----|
-----2-----2-----2-----2--|-----0-----0-----0-----0--|
--3-----------------------|--------------------------|
--------------------------|--------------------------|
--------------------------|--3-----------------------|

  E  E  E  E  E  E  E  E     E  E  E  E  E  E  E  E
--------------1-----------|--------------3-----------|
--------1-----------1-----|--------0-----------0-----|
-----2-----2-----2-----2--|-----0-----0-----0-----0--|
--0-----------------------|--------------------------|
--------------------------|--------------------------|
--------------------------|--3-----------------------|
                           1st Ending----------------

  E  E  E  E  E  E  E  E     E  E  E  E  E  E  E  E
--------------1-----------|-----------0---------------||
--------1-----------1-----|--------------4------------||
-----2-----2-----2-----2--|--------4--------4-----4--*||
--3-----------------------|-----4--------------4-----*||
--------------------------|--2------------------------||
--------------------------|---------------------------||

2nd Ending--------------     ^
  E  E  E  E  E  E  E  E     W
-----------0--------------|--2----------------||
--------------4-----------|--4----------------||
--------4--------4-----4--|--4----------------||
-----4--------------4-----|--4----------------||
--2-----------------------|--2----------------||
--------------------------|-------------------||

Duration Legend
---------------
W - whole
H - half
Q - quarter
E - 8th
S - 16th
T - 32nd
X - 64th
. - note dotted
|-n-|  - n-tuplets
Login or Register to remove this ad.

3 comments on Wipe Away The Tears

You should make more tabs

You should make more tabs from this game

i agree with archard, iv

i agree with archard, iv never played this game b4 but listening to these 2 songs, im thinkin the rest of the game has some beautiful musics

I have to try this one...

I have to try this one... Great work.
:-)