Ads

Minstrel Song (Romancing SaGa: Minstrel Song) Guitar Tab

Submitted: Oct 02, 2007 by Kabukibear (Last updated: Nov 27, 2009)

4.666665
Average: 4.7 (3 votes)
Download | Listen
Game: Romancing SaGa: Minstrel Song
Composer(s): Kenji Ito
Style: 2 or more instruments, Fingerstyle, Transcription

AutoScroll: Slow | Medium | Fast
Minstrel Song
~Romancing Saga - Minstrel Song~
Composed By: Kenji Ito
Transcribed By: Justin Lincoln

Guitar 1

     E  E  E    E  H           E  E  E    E  H
E||--4--0--4--4g7--5--------|--2-----2--2g5--4--------|
B||-------------------------|-----4-------------------|
G||-------------------------|-------------------------|
D||-------------------------|-------------------------|
A||-------------------------|-------------------------|
E||-------------------------|-------------------------|

  E  E  E    E  Q.     E     H        Q    E  E     E  E  E    E  H
--0-----0--2g4--2------0--|--0-------------0--2--|--4--0--4--4g7--5--------|
-----2--------------------|-----------4----------|-------------------------|
--------------------------|----------------------|-------------------------|
--------------------------|----------------------|-------------------------|
--------------------------|----------------------|-------------------------|
--------------------------|----------------------|-------------------------|

  E  E  E    E  Q    Q       E  E  E  E    E  Q    S S    Q    Q    H
--2-----2--2g5--4----2----|--0-----0--4--4g7--5----4-2-|--0---------0--------|
-----4--------------------|-----2----------------------|-------4-------------|
--------------------------|----------------------------|---------------------|
--------------------------|----------------------------|---------------------|
--------------------------|----------------------------|---------------------|
--------------------------|----------------------------|---------------------|

       |---3---|
  Q    E   E   E   Q    Q        H         E    E  E  E
--9----9--11--12--11----9----|---------------------------|
-----------------------------|--12---------L--7g9--7-----|
-----------------------------|------------------------9--|
-----------------------------|---------------------------|
-----------------------------|---------------------------|
-----------------------------|---------------------------|

           |---3--|
     Q     E   E  E   E   E  E   E     W
------------------9-----------------|-------------------|
--7g10----10--12-----12------9--10--|--9----------------|
-------------------------11---------|-------------------|
------------------------------------|-------------------|
------------------------------------|-------------------|
------------------------------------|-------------------|

       |---3---|
  Q    E   E   E   Q    Q        H         E     E   E  E
--9----9--11--12--11----9----|-----------------------------|
-----------------------------|--12---------L--9g12--10--9--|
-----------------------------|-----------------------------|
-----------------------------|-----------------------------|
-----------------------------|-----------------------------|
-----------------------------|-----------------------------|

         |---3--|              1st Ending---------   2nd Ending--------
   Q     E  E   E  Q    E  E     W                     W
------------------------------|--------------------||-------------------||
--------10--9-----------------|--------------------||-------------------||
---------------11--9----8--9--|--9----------------*||--9----------------||
--11--------------------------|-------------------*||-------------------||
------------------------------|--------------------||-------------------||
------------------------------|--------------------||-------------------||

Duration Legend
---------------
W - whole
H - half
Q - quarter
E - 8th
S - 16th
T - 32nd
X - 64th
. - note dotted
|-n-|  - n-tuplets

Tablature Legend
----------------
L - tied note
x - dead note
g - grace note



Minstrel Song
~Romancing Saga - Minstrel Song~
Composed By: Kenji Ito
Transcribed By: Justin Lincoln

Guitar 2

     E  E  E  E  E  E  E  E     E  E  E  E  E  E  E  E
E||--------------------------|--------------------------|
B||--------0-----------2-----|--------4-----------0-----|
G||--------1-----------2-----|--------4-----------1-----|
D||-----2-----2-----4-----4--|-----4-----4-----2-----2--|
A||--------------------------|--2-----2-----------------|
E||--0-----0-----2-----------|--------------0-----------|

  E  E  E  E  E  E  E  E     E  E  E  E  E  E  E  E
--------------------------|--------------------------|
--------------------2-----|--------2-----------0-----|
--------4-----------3-----|--------2-----------2-----|
-----6-----6-----4-----4--|-----2-----2-----4-----4--|
--4-----------------------|--2-----------2-----------|
--------------2-----------|--------------------------|

  E  E  E  E  E  E  E  E     E  E  E  E  E  E  E  E
--------------------------|--------------------------|
--------0-----------2-----|--------4-----------------|
--------1-----------2-----|--------4--------1-----5--|
-----2-----2-----2-----2--|-----4-----4-----2-----6--|
--------------------------|--2--------------2-----6--|
--0-----0-----2-----------|--------------0-----4-----|

  E  E  E  E  E  E  E  E     E  E  E  E  E  E  E  E
--------------------------|--------------------------|
--------------------2-----|--------------------0-----|
--------4-----------2-----|--------4-----------1-----|
-----6-----6-----4-----4--|-----4-----4-----2-----2--|
--4-----------------------|--2-----------------------|
--------------2-----------|--------------0-----------|

  E  E  E  E  E  E  E  E     E  E  E  E  E  E  E  E
--------------------------|--------------------------|
--------------------------|--------------------------|
--------2-----------4-----|--------4-----------4-----|
-----2--2--2-----4--4--4--|-----6--6--6-----6--6--6--|
--0-----------2-----------|--------------4-----------|
--------------------------|--4-----------------------|

  E  E  E  E  E  E  E  E     E  E  E  E  E  E  E  E
--------------------------|--------------------------|
--------------------4-----|--------------------------|
--------2-----------4-----|--------1-----------1-----|
-----4--4--4-----4-----4--|-----2--2--2-----0--0--0--|
--------------2-----------|--------------------------|
--2-----------------------|--0-----------0-----------|

  E  E  E  E  E  E  E  E     E  E  E  E  E  E  E  E
--------------------------|--------------------------|
--------------------4-----|--------3-----------6-----|
--------2-----------4-----|--------4-----------6-----|
-----2--2--2-----4-----4--|-----4-----4-----6-----6--|
--0-----------2-----------|--------------4-----------|
--------------------------|--4-----------------------|

                            1st Ending----------------
  E  E  E  E  E  E  E  E     E  E  E  E  E  E  E  E
--------------------------|---------------------------||
--------2-----------4-----|--------0-----------0------||
--------2-----------4-----|--------2-----------1-----*||
-----4-----4-----4-----4--|-----2-----2-----2-----2--*||
--------------2-----------|---------------------------||
--2-----------------------|--0-----------0------------||

2nd Ending-------------
  E  E  E  E  H
-----------------------||
--------0-----0--------||
--------2-----1--------||
-----2-----2--2--------||
-----------------------||
--0--------------------||

Duration Legend
---------------
W - whole
H - half
Q - quarter
E - 8th
S - 16th
T - 32nd
X - 64th
. - note dotted
|-n-|  - n-tuplets

Tablature Legend
----------------
L - tied note
x - dead note
g - grace note
Login or Register to remove this ad.

1 comment on Minstrel Song

does anyone know the tabs to

4

does anyone know the tabs to the Minuet? You know the song that the Minstrel sings in the beginning of the game???

I can't find it anywhere. :/