Ads

The Church (Rogue Galaxy) Guitar Tab

Submitted: Sep 21, 2008 by Kabukibear (Last updated: Nov 14, 2009)

5
Average: 5 (7 votes)
Download | Listen
Game: Rogue Galaxy
Composer(s): Tomohito Nishiura
Style: Arrangement, Fingerstyle

AutoScroll: Slow | Medium | Fast
The Church                                    
~Rogue Galaxy~
Composed by: Tomohito Nishiura
Arranged by: Justin Lincoln


 (Capo 4)



     H        Q       H        E  E     Q    Q    Q       Q    E  E  E  E   
E||-----------3----|--3--------1--0--|--0--------------|-------------------|
B||--1-------------|--0--------------|------------3----|--0----0--1--3--0--|
G||--2-------------|-----------------|--2--------------|-------------1-----|
D||----------------|--2--------------|--3--------------|--2----------------|
A||--0-------------|-----------------|-------0---------|-------------------|
E||----------------|-----------------|-----------------|--4----------------|


  Q    Q    Q       H        E  E     Q    Q    Q       H        Q     
-----------------|-----------0-----|--0--------------|----------------|
-------0----1----|--1-----------3--|------------3----|--0--------0----|
--2--------------|-----------------|--2--------------|----------------|
-------2---------|--2--------------|--3--------------|--2--------2----|
--0---------3----|-----------------|-------0---------|-----------2----|
-----------------|--3--------------|-----------------|--4-------------|


  Q    Q    Q       Q    Q    E  E     Q    Q    Q       Q    E  E  E  E   
------------3----|--3------------0--|--0--------------|-------------------|
--1--------------|------------3-----|------------3----|--0----0--1--3--0--|
--2--------------|--0---------------|-------2----2----|-------------1-----|
------------2----|-------0----2-----|--3--------------|--2----------------|
--0----3---------|--2---------2-----|--0----0---------|-------2-----------|
-----------------|------------------|-----------------|--4----------------|


  Q    Q    Q       Q    Q    E  E     Q    Q    Q       Q    E  E  E  E   
-----------------|------------0-----|--0--------------|-------------------|
-------0----1----|--1------------3--|------------3----|--0----0--1--3--0--|
--2--------------|------------------|--2--------------|-------------1-----|
-------2---------|--2---------2-----|--3--------------|--2----------0-----|
--0---------3----|-------3----------|-------0---------|-------2-----------|
-----------------|--3---------------|-----------------|--4----------------|


  E  E  E  E  E  E     Q    E  S S E  E     E  E  E  E  E  E   
--------------------|--0-----------------|--------------------|
--------0-----0-----|----------1-3-1--0--|--------0-----1-----|
--2-----------5-----|--2-----------------|--2-----0-----2-----|
--------2-----------|--3-------2------2--|--3-----------3-----|
--0--------2--0--0--|--------------0-----|-----------2--0-----|
-----0--------------|--1----3------------|--1--1-----------1--|


  Q    E  S S E  E     E  E  E  S S E  E     E  E  E  S S E  E   
--------------------|-----------0---0-----|--1--0---------------|
--3-------0-1-0-----|-----0--1----3-------|--------3--0-1-3-----|
--4--------------1--|--2------------------|---------------------|
-------2------------|---------------------|--0------------------|
-------2--2------2--|--0--------0------4--|---------------2-----|
--0-----------0-----|---------------0-----|-----------4------0--|


  E  E  E  S S E  E     S S E  E  S S E  E     E  E  E  S S E  E   
--5------------------|--8-7-5--0--1-0-0-----|-----------0---0-----|
-----3--1--3-1-0-----|--5-------------------|-----0--2----3-------|
---------------------|---------2---------1--|--2------------------|
--2------------0--6--|------------2------2--|--2--------0---------|
-----------2---------|--0------0---------2--|--4------------0--4--|
---------------------|----------------------|---------------------|


  E  E  E  S S E  E     E  E  E  E  S S E     E  E  E  Q    E   
--3--1--0----0-1-----|--0------------------|-------------------|
-----------3---------|-----0--1--3---------|-------------------|
--2------------------|------------------1--|--2--------2-------|
--0------------0-----|--------2-------4----|--------2-------2--|
-----------0------0--|--2-------------2-2--|--0--3-----0-------|
---------------------|-----4-----0--4------|-------------------|


  E  S S E  E  S S E     E  S S E  E  E  E     E  S S E  E  S S E   
--0--1-0-0--0--1-0-0--|--0--1-0-0-----------|--1--3-1-1--1--3-1-1--|
--1---------0---------|------------3--1--0--|--0---------0---------|
----------------------|--2------------------|---------------0---0--|
-----2---2-----2---2--|-----2---2--------0--|-----0---0------------|
--0-------------------|---------------------|------------2---------|
------------4---------|--3---------4--0-----|--3-------------------|


  E  S S E  E  S S E     E  S S E  E  S S E     E  S S E  E  E  E   
--1--3-1-1--1--0---0--|--0--1-0-0--0--1-0-0--|--0--1-0-0-----------|
--0--------------3----|--1---------0---------|------------3--1--0--|
----------------------|----------------------|--2------------------|
--0--3---3--2---------|-----2---2-----2---2--|-----2---2--------0--|
------------3---------|--0-------------------|---------------------|
----------------------|------------4---------|--3---------4--0-----|


  E  S S E  E  S S E     E  E  E  E  E  E     H.              
-----0---------0------|--------------------|----------------||
--3----3-3--3----3-3--|--3--1--0-----1-----|----------------||
--1-------------------|--1-----1--2--------|---------------*||
---------------2---2--|--2--------2--------|---------------*||
-----2---2------------|-----3--2--0-----0--|--L-------------||
--0---------4---------|--------------------|----------------||




Duration Legend
---------------
W - whole
H - half
Q - quarter
E - 8th
S - 16th
T - 32nd
X - 64th
. - note dotted
|-n-|  - n-tuplets


Tablature Legend
----------------
L - tied note
Login or Register to remove this ad.

2 comments on The Church

Give this one a go guys, I

Give this one a go guys, I think you'll be pleasantly surprised :)

!!! I really like

5

!!!
I really like it!
Unfortunately, I've never actually heard of Rogue Galaxy.
But this sounds very nice.