Ads

Shadow of the Sun (Rogue Galaxy) Guitar Tab

Submitted: Feb 17, 2009 by Kabukibear (Last updated: Jan 15, 2010)

5
Average: 5 (2 votes)
Download | Listen
Game: Rogue Galaxy
Composer(s): Tomohito Nishiura
Style: 2 or more instruments, Fingerstyle, Transcription

AutoScroll: Slow | Medium | Fast
Shadow of the Sun                                 
~Rogue Galaxy~
Composed by: Tomohito Nishiura
Tabbed by: Justin Lincoln

Guitar 1


     H.              H.              H.              H.            
E||---------------|---------------|---------------|---------------|
B||---------------|---------------|---------------|---------------|
G||---------------|---------------|---------------|---------------|
D||---------------|---------------|---------------|---------------|
A||---------------|---------------|---------------|---------------|
E||---------------|---------------|---------------|---------------|


  H.              H.              H.              H.            
---------------|---------------|---------------|---------------|
---------------|---------------|---------------|---------------|
---------------|---------------|---------------|---------------|
---------------|---------------|---------------|---------------|
---------------|---------------|---------------|---------------|
---------------|---------------|---------------|---------------|


  Q    Q    Q          H.                H         Q        Q     Q     Q     
-----------------|------------------|-------------------|--10----------------|
-------7----7----|--8g10------------|-------------10----|--------10----10----|
-----------------|------------------|--7g9--------------|--------------------|
-----------------|------------------|-------------------|--------------------|
-----------------|------------------|-------------------|--------------------|
-----------------|------------------|-------------------|--------------------|


  Q    Q    Q        H        Q       Q    Q    Q       Q    Q    Q     
-----------------|-----------------|-----------------|-----------------|
-------8----8----|--10--------8----|--7----5----7----|--5--------------|
-----------------|-----------------|--7----6----7----|--6----3---------|
-----------------|-----------------|-----------------|------------4----|
-----------------|-----------------|-----------------|-----------------|
-----------------|-----------------|-----------------|-----------------|


  Q    Q    Q          H.                Q     Q     Q        Q     Q     Q     
-----------------|------------------|---------------------|--10----------------|
-------7----7----|--8g10------------|---------10----10----|--------10----10----|
-----------------|------------------|--7g9----------------|--------------------|
-----------------|------------------|---------------------|--------------------|
-----------------|------------------|---------------------|--------------------|
-----------------|------------------|---------------------|--------------------|


                                                                   |-3-|  
  Q    Q    Q       H         Q        H.              H        E  S S S  
-------7----7----|--9--------10----|--10------------|--------------------|
-----------------|-----------------|----------------|--------------7-7-7-|
-----------------|-----------------|----------------|--------------------|
-----------------|-----------------|----------------|--------------------|
-----------------|-----------------|----------------|--------------------|
-----------------|-----------------|----------------|--------------------|


                     |-3-|                            
  Q    E  E   E   S  T T T    Q.      E   E  T T T T  
-------7--9--10--12-10-9-7-|--9----------10--9-7-5-7-|
--7------------------------|---------10--------------|
---------------------------|-------------------------|
---------------------------|-------------------------|
---------------------------|-------------------------|
---------------------------|-------------------------|


                   |--3--|                    |-3-|  
  E  E  E  E   E   S  S  S     Q     Q     E  S S S  
--L-----7--9--10---L-10-12-|--14----12----10--7-7-7-|
---------------------------|------------------------|
---------------------------|------------------------|
---------------------------|------------------------|
---------------------------|------------------------|
---------------------------|------------------------|


                     |-3-|                  |-3-|                      
  Q    E  E   E   S  T T T    Q.     E   E  S S S    E  E  Q     Q     
--7----7--9--10--12-10-9-7-|--9------9--10--9-7-5-|--7--7--7----14----|
---------------------------|----------------------|-------------------|
---------------------------|----------------------|-------------------|
---------------------------|----------------------|-------------------|
---------------------------|----------------------|-------------------|
---------------------------|----------------------|-------------------|


                    |-3-|                       |-3-|  
   Q       Q     E  S S S    Q    E  E   E   S  T T T  
--------------------7-7-7-|--7----7--9--10--12-10-9-7-|
--12------------10--------|---------------------------|
--------9g11--------------|---------------------------|
--------------------------|---------------------------|
--------------------------|---------------------------|
--------------------------|---------------------------|


                                             |--3--|  
  Q.      E   E  T T T T    E  E  E  E   E   S  S  S  
--9----------10--9-7-5-7-|--L-----7--9--10---L-10-12-|
---------10--------------|---------------------------|
-------------------------|---------------------------|
-------------------------|---------------------------|
-------------------------|---------------------------|
-------------------------|---------------------------|


                   |--3--|                         |-3-|  
   Q     Q     E   S  S  S     Q     E  E   E   S  T T T  
--14----12----10-----------|------------9--10--12-10-9-7-|
------------------12-12-12-|--12----12-------------------|
---------------------------|-----------------------------|
---------------------------|-----------------------------|
---------------------------|-----------------------------|
---------------------------|-----------------------------|


                                        |-3-|                    
  Q.     E   E   T T T T    H        E  S S S    H.              
--9------9--10---L-9-7-5-|--7--------L--7-7-7-|--7-------------||
-------------------------|--------------------|----------------||
-------------------------|--------------------|---------------*||
-------------------------|--------------------|---------------*||
-------------------------|--------------------|----------------||
-------------------------|--------------------|----------------||




Duration Legend
---------------
W - whole
H - half
Q - quarter
E - 8th
S - 16th
T - 32nd
X - 64th
. - note dotted
|-n-|  - n-tuplets


Tablature Legend
----------------
L - tied note
g - grace note

=========================================================

Shadow of the Sun                                 
~Rogue Galaxy~
Composed by: Tomohito Nishiura
Tabbed by: Justin Lincoln

Guitar 2

     E  E  E  E  E  E     E  E  E  E  E  E     E  E  E  E  E  E   
E||--------------------|-----------0-----0--|--------2--0--2--3--|
B||-----------2-----2--|--------3-----3-----|--------------------|
G||--------4-----4-----|-----0--------------|-----2--------------|
D||-----4--------------|--------------------|--------------------|
A||--2-----------------|--2-----------------|--4-----------------|
E||--------------------|--------------------|--------------------|


  E  E  E   E  Q       E  E  E  E  E  E     E  E  Q    E  E   
--2-----0h--2-------|-----------0-----0--|-------------------|
---------------3----|--------3-----3-----|--3-----2----------|
-----2--------------|--------------------|-------------2-----|
--0-----------------|-----0--------------|-----2----------2--|
--------------------|--------------------|--0----------------|
--------------------|--3-----------------|-------------------|


  E  E  E  E  E  E     E  E  E  E  Q       E  E  E  E  E  E   
--------------0-----|-------------------|--------------------|
--------3-----------|--2-----3-----0----|-----------2-----2--|
-----------4--------|-----------0-------|--------4-----4-----|
-----4-----------4--|-----2-------------|-----4--------------|
--2-----------------|-------------------|--2-----------------|
--------------------|--3----------------|--------------------|


  E  E  E  E  E  E     E  E  E  E  E  E     E  E  E   E  Q     
-----------0-----0--|--------2--0--2--3--|--2-----0h--2-------|
--------3-----3-----|--------------------|---------------3----|
-----0--------------|-----2--------------|-----2--------------|
--------------------|--------------------|--0-----------------|
--2-----------------|--4-----------------|--------------------|
--------------------|--------------------|--------------------|


  E  E  E  E  E  E     E  E  E  E  E  E     E  E  E  E  Q     
-----------0-----0--|--------------------|-------------------|
--------3-----3-----|--3-----2-----3--2--|--------2-----3----|
--------------------|-----------2--------|-----------2-------|
-----0--------------|-----2--------------|-----4-------------|
--------------------|--0-----------------|--2----------------|
--3-----------------|--------------------|-------------------|


  E  E  E  E  Q       E  E  E  E  E  E     E  E  E  E  E  E   
--0----------------|--------------------|-----------0-----0--|
--------3-----2----|-----------2-----2--|--------3-----3-----|
-------------------|--------4-----4-----|-----0--------------|
-----2-----4-------|-----4--------------|--------------------|
-------------------|--2-----------------|--2-----------------|
--3----------------|--------------------|--------------------|


  E  E  E  E  E  E     E  E  E   E  Q       E  E  E  E  E  E   
--------2--0--2--3--|--2-----0h--2-------|-----------0-----0--|
--------------------|---------------3----|--------3-----3-----|
-----2--------------|-----2--------------|--------------------|
--------------------|--0-----------------|-----0--------------|
--4-----------------|--------------------|--------------------|
--------------------|--------------------|--3-----------------|


  E  E  E  E  E  E     E  E  E  E  E  E     E  E  E  E  E  E   
--------------------|--------------------|--------------------|
--3-----2-----3--2--|--0-----2-----3-----|--5-----3-----2-----|
-----------2--------|-----------------4--|--------------------|
-----2--------------|-----0-----4--------|-----------2-----4--|
--0-----------------|--2-----------------|-----4--------------|
--------------------|--------------------|--2-----------------|


  E  E  E  E  E  E     E  E  E  E  E  E     E  E  E  E  E  E   
--------------------|--------------------|--------------------|
-----------2-----2--|-----------2-----2--|-----------2-----2--|
--------4-----4-----|--------4-----4-----|--------4-----4-----|
-----0--------------|-----2--------------|-----4--------------|
--------------------|--0-----------------|--2-----------------|
--3-----------------|--------------------|--------------------|


  E  E  E  E  E  E     E  E  E  E  E  E     E  E  E  E  E  E   
--------------------|--------------------|--------------------|
-----------2-----2--|-----------2-----2--|-----------2-----2--|
--------4-----4-----|--------4-----4-----|--------4-----4-----|
-----2--------------|-----0--------------|--------------------|
--0-----------------|--------------------|-----4--------------|
--------------------|--3-----------------|--2-----------------|


  E  E  E  E  E  E     E  E  E  E  E  E     E  E  E  E  E  E   
--------------------|--------------------|--------------------|
-----------2-----2--|-----------2-----2--|-----------2-----2--|
--------4-----4-----|--------4-----4-----|--------4-----4-----|
-----4--------------|-----4--------------|-----0--------------|
--2-----------------|--0-----------------|--------------------|
--------------------|--------------------|--3-----------------|


  E  E  E  E  E  E     E  E  E  E  E  E     E  E  E  E  E  E   
--------------------|--------------------|--------------------|
-----------2-----2--|-----------2-----2--|-----------2-----2--|
--------4-----4-----|--------4-----4-----|--------4-----4-----|
-----2--------------|-----4--------------|-----4--------------|
--0-----------------|--2-----------------|--0-----------------|
--------------------|--------------------|--------------------|


  E  E  E  E  E  E     E  E  E  E  E  E     E  E  E  E  E  E   
--------------------|--------------------|-----------------0--|
-----------2-----2--|-----------2-----2--|-----------2--3-----|
--------4-----4-----|--------4-----4-----|--------4-----------|
-----0--------------|--------------------|-----4--------------|
--------------------|-----4--------------|--2-----------------|
--3-----------------|--2-----------------|--------------------|


  E  E  E  E  E  E     
--2------------------||
--------2------------||
-----------2--4-----*||
-----4-----------4--*||
--2------------------||
---------------------||




Duration Legend
---------------
W - whole
H - half
Q - quarter
E - 8th
S - 16th
T - 32nd
X - 64th
. - note dotted
|-n-|  - n-tuplets


Tablature Legend
----------------
h - hammer on
Login or Register to remove this ad.

1 comment on Shadow of the Sun

Solo Guitar?

5

Any chance you'd ever try to make a solo version of this tab? Sounds amazing but I love your solo tabs and I think you could pull it off.