Scarlet Wind (Radiata Stories) Guitar Tab

Submitted: Sep 10, 2008 by Kabukibear (Last updated: Nov 27, 2009)

5
Average: 5 (3 votes)
Download | Listen
Game: Radiata Stories
Composer(s): Noriyuki Iwadare
Style: Fingerstyle, Transcription

AutoScroll: Slow | Medium | Fast
Scarlet Wind
~Radiata Stories~
Composed by: Noriyuki Iwadare
Tabbed by: Justin Lincoln



     H.           Q           H        H           W                 
E||--------------------||---5g8--------6--------|-------------------|
B||--------------------||-----------------------|--9----------------|
G||---------------5----||*----------------------|-------------------|
D||--------------------||*----------------------|-------------------|
A||--------------------||-----------------------|-------------------|
E||--------------------||-----------------------|-------------------|


    E.  S E  E    E.  S E  E     H.           S S E   
------------------------------|----------------------|
--7g9---9-L--9--6g8---8-L--8--|--6------------6-8-9--|
------------------------------|----------------------|
------------------------------|----------------------|
------------------------------|----------------------|
------------------------------|----------------------|


  H        S E     S  S S E     H        S E    S S S S S  
-----------------------------|----------------------------|
--8--------8-9--9g11--L-9-8--|--9--------6-8--7g9-L-8-6-9-|
-----------------------------|----------------------------|
-----------------------------|----------------------------|
-----------------------------|----------------------------|
-----------------------------|----------------------------|


  H        S E     S  S S E     H.           S S S S    H        E  E     Q     
-----------------------------|---------------------6-|--8--------L--6--6g11----|
--8--------8-9--9g11--L-9-8--|--6------------6-8-9---|-------------------------|
-----------------------------|-----------------------|-------------------------|
-----------------------------|-----------------------|-------------------------|
-----------------------------|-----------------------|-------------------------|
-----------------------------|-----------------------|-------------------------|


                         |-----3-----|    |----3----|     
   E  E  H.              Q      Q    Q    Q    Q    Q     
---L--9--8------------|--L----6g8----8----6----6----6----|
----------------------|----------------------------------|
----------------------|----------------------------------|
----------------------|----------------------------------|
----------------------|----------------------------------|
----------------------|----------------------------------|


  H.           S S E     H        S E     S  S S E   
----------------------|-----------------------------|
--9------------6-8-9--|--8--------8-9--9g11--L-9-8--|
----------------------|-----------------------------|
----------------------|-----------------------------|
----------------------|-----------------------------|
----------------------|-----------------------------|


  H        S E    S S S S S    H        S E     S  S S E   
----------------------------|-----------------------------|
--9--------6-8--7g9-L-8-6-9-|--8--------8-9--9g11--L-9-8--|
----------------------------|-----------------------------|
----------------------------|-----------------------------|
----------------------------|-----------------------------|
----------------------------|-----------------------------|


  H        S S S S S S S S    E.  S E.  S E  E  S E  S  
---------------------------|--------------1------------|
--6--------L---------------|-----------------4--1------|
-----------------------1---|--3---1---------------3--1-|
---------------1---1-3---3-|------------3--------------|
-------------3---3---------|---------------------------|
---------------------------|---------------------------|


  S S S S Q    S S S S S E  S    E  E  E.  S S S S S S E  S  
------------------------------|-----------------------------|
------1-----------------------|-----------------------------|
--L--------------3---3---3--3-|--L--1--------------1-3-1----|
----3---3-L----L--------------|------------3-L-1-3--------3-|
------------------------------|-----------------------------|
------------------------------|-----------------------------|


  S S E  S E  S S S S S S S S S       H         E  S S  E  S S  
--------------------------------|------------------------------|
----------------1---4---6---6-9-|--9g11---------L--8-9-11--9-8-|
---------1-3--1---3---5---8-----|------------------------------|
--L-1-3-------------------------|------------------------------|
--------------------------------|------------------------------|
--------------------------------|------------------------------|


  E   E  S  E   S  S  S S  E  S  E     Q.     E  S S S S    Q     
------------------------------------|----------------------------|
--9---------------------------------|----------------------------|
-----10--8-10--10--L----8-10--8-----|----------------------------|
---------------------10---------10--|--8------6--5-6-8-5-8g10----|
------------------------------------|----------------------------|
------------------------------------|----------------------------|


  H        S  S S S  S S  S S    E  S E  E  E  S E.  E  S  
----------------------------8-|--L--8----8--8----8---8--8-|
----------------8-9-11-9-11---|---------------------------|
-------------10---------------|---------------------------|
------------------------------|---------------------------|
--8--------L------------------|---------------------------|
------------------------------|---------------------------|


     E.  S H        S S S S    E.  S E  E     E  E  S  E  S  
--------------------------6-|--8---8-L--8--8g11--9--8-------|
--9g11---9----------6-8-9---|-------------------------11--9-|
----------------------------|-------------------------------|
----------------------------|-------------------------------|
----------------------------|-------------------------------|
----------------------------|-------------------------------|


  S  S E  Q    S   E  E  S E       H        E  E  E  E   
-------8---------4g6----------|-------------------------|
--L-------------------9--8-6--|--6g8--------8--6-----8--|
----10------------------------|-------------------8-----|
------------------------------|-------------------------|
------------------------------|-------------------------|
------------------------------|-------------------------|


  E.  S E   E   Q     S  S S S    H        S E     S  S S E   
-------------------------------|-----------------------------|
--9---8-L------------------8-9-|--8--------8-9--9g11--L-9-8--|
-----------10---L-------10-----|-----------------------------|
---------------------10--------|-----------------------------|
-------------------------------|-----------------------------|
-------------------------------|-----------------------------|


  H.           Q       
---------------------||
--6------------------||
---------------5----*||
--------------------*||
---------------------||
---------------------||




Duration Legend
---------------
W - whole
H - half
Q - quarter
E - 8th
S - 16th
T - 32nd
X - 64th
. - note dotted
|-n-|  - n-tuplets


Tablature Legend
----------------
L - tied note
g - grace note
Login or Register to remove this ad.

1 comment on Scarlet Wind

nicely done... i wish i

5

nicely done... i wish i still had this game... my friend broke it... but i saw it at the store yesterday for 15 bucks... so imma get it again soon lol