Hikari (Kingdom Hearts) Guitar Tab

Submitted: Oct 02, 2007 by archard

4.555555
Average: 4.6 (9 votes)
Download | Listen
Game: Kingdom Hearts
Composer(s): Yoko Shimomura
Style: Transcription
Series: Kingdom Hearts

AutoScroll: Slow | Medium | Fast
Hikari by Utada Hikaru
Tabbed by: Christian Gonsalez (gotegenks)

e----------------|------------------------------------------------------|
B----3-1---------|---------------4-3-1-------6-4-3-1-1-3-4-----3-4-1----|
G--0-----3-2-3---|---------3-2-3-------3-2-3---------------0-3-------3-2|
D----------------|-3-3-3-3----------------------------------------------|
A----------------|------------------------------------------------------|
E--------------x3|------------------------------------------------------|

e-----------------------------------------------------------------|
B-----------------------------------------------------------------|
G----2-3-3---2-3-3-5-----2-3-5-2^3^2^3^2^3^2^3---2-3-3---2-3-3-2--|
D--3-------3---------5-3-----------------------3-------3---------3|
A-----------------------------------------------------------------|
E-----------------------------------------------------------------|

e-----------------------------------------------------|
B-----------------------------------------------------|
G------------------3-------------------3-----3-----3--|
D--5-4-5-4-5-4-5-7---4-4-3-4-3-4-3-5-7---3-5---3-5----|
A-----------------------------------------------------|
E-----------------------------------------------------|

e----------------------------------------------------------|
B----------------------------------------------------------|
G---------------3-5-7-5---7-----8-7---------3-----3-----7--|
D-5-3-5-5-3-5-7---------5---5-4-----4-5-3-5---3-5---3-4----|
A----------------------------------------------------------|
E----------------------------------------------------------|

e----------------|------------------------------------------------------|
B----3-1---------|---------------4-3-1-------6-4-3-1-1-3-4-----3-4-1----|
G--0-----3-2-3---|---------3-2-3-------3-2-3---------------0-3-------3-2|
D----------------|-3-3-3-3----------------------------------------------|
A----------------|------------------------------------------------------|
E--------------x3|------------------------------------------------------|

e-----------------------------------------------------------------|
B-----------------------------------------------------------------|
G----2-3-3---2-3-3-5-----2-3-5-2^3^2^3^2^3^2^3---2-3-3---2-3-3-2--|
D--3-------3---------5-3-----------------------3-------3---------3|
A-----------------------------------------------------------------|
E-----------------------------------------------------------------|

e-----------------------------------------------------|
B-----------------------------------------------------|
G------------------3-------------------3-----3-----3--|
D--5-4-5-4-5-4-5-7---4-4-3-4-3-4-3-5-7---3-5---3-5----|
A-----------------------------------------------------|
E-----------------------------------------------------|

e----------------------------------------------------------|
B----------------------------------------------------------|
G---------------3-5-7-5---7-----8-7---------3-----3-----7--|
D-5-3-5-5-3-5-7---------5---5-4-----4-5-3-5---3-5---3-4----|
A----------------------------------------------------------|
E----------------------------------------------------------|

e----------------|------------------------------------------------------|
B----3-1---------|---------------4-3-1-------6-4-3-1-1-3-4-----3-4-1----|
G--0-----3-2-3---|---------3-2-3-------3-2-3---------------0-3-------3-2|
D----------------|-3-3-3-3----------------------------------------------|
A----------------|------------------------------------------------------|
E--------------x3|------------------------------------------------------|

e--1-------1-1-3-1-------1---------------1---------------------------------|
B------------------4-3-4-----------4-3-4---3-1-----------------------------|
G----3-3-3-----------------3-3-0-3-------------3-2-3---2-3-----------------|
D----------------------------------------------------3-----3-1-0-1-0-1-3-3-|
A--------------------------------------------------------------------------|
E--------------------------------------------------------------------------|

e--------------------------------------------------------------------------|
B-----------3-1-4-3--------------------------------------------------------|
G-------3------------------------------------------------------------------|
D-5-3-5---3----------------------------------------------------------------|
A--------------------------------------------------------------------------|
E--------------------------------------------------------------------------|

e--1-------1-1-3-1-------1---------------1---------------------------------|
B------------------4-3-4-----------4-3-4---3-1-----------------------------|
G----3-3-3-----------------3-3-0-3-------------3-2-3---2-3-----------------|
D----------------------------------------------------3-----3-1-0-1-0-1-3-3-|
A--------------------------------------------------------------------------|
E--------------------------------------------------------------------------|

e--------------------------------------------------------------------------|
B-----------3-1-4-3--------------------------------------------------------|
G-------3------------------------------------------------------------------|
D-5-3-5---3----------------------------------------------------------------|
A--------------------------------------------------------------------------|
E--------------------------------------------------------------------------|

e----------------|------------------------------------------------------|
B----3-1---------|---------------4-3-1-------6-4-3-1-1-3-4-----3-4-1----|
G--0-----3-2-3---|---------3-2-3-------3-2-3---------------0-3-------3-2|
D----------------|-3-3-3-3----------------------------------------------|
A----------------|------------------------------------------------------|
E--------------x3|------------------------------------------------------|
Login or Register to remove this ad.

9 comments on Hikari

2-3-5-2^3^2^3^2^3^2^3????

2-3-5-2^3^2^3^2^3^2^3????

I'm assuming it's a

I'm assuming it's a tremolo/hammer-on & pulling off

AHHHHHHH TABLATURE CONFUSES

AHHHHHHH TABLATURE CONFUSES ME!!! if someone can help me learn how to read tablature over internet send email to [email protected] because i wanna be able to play kingdom hearts music and zelda music and stuff like that it's just all to complicated plus me havin turtle speed fingers doesnt help

Hey

I can help you pretty simply. here's my email address:

[email protected]

I also have legend of zelda midi's, mp3's and Tablatures that I have found over the years. I personally like to play those and final fantasy licks. but Yeah, if you need anything at all, gimme a shout, I'm pretty resourceful when it comes to these things. Lol.

OMG this song is so

OMG this song is so different in japenese because if i ever tab this song it will be in english it confuses me in japanese even though it sounds better in japanese

http://youtube.com/watch?v=5V

http://youtube.com/watch?v=5VRgxG2MUtA
I tried using this in the background to help me learn...it helped...kinda...turtle speed fingers dude, i feel ur pain!

The tabs are a bit

4

The tabs are a bit confusing... I get most of it, but I get lost in some parts even with the music playing... I dunno if it's just me or what, but I can't get the timming right...

Nice Tab

5

Comparing to the song, I see little to no flaws in the tab. Very nice. But be careful about extra notes. I noticed that in a single part, you (may not have been you, I may be thinking of another tab I just looked up) but you put an additional note in, and it throws people off when that happens because of timing and such. But, extra is better than not enough.