Hikari (Kingdom Hearts) Guitar Tab

Submitted: Oct 02, 2007 by archard

4.75
Average: 4.8 (36 votes)
Download | Listen
Game: Kingdom Hearts
Composer(s): Yoko Shimomura
Style: Transcription
Series: Kingdom Hearts

AutoScroll: Slow | Medium | Fast
Hikari
Kingdom Hearts
Composed by Yoko Shimomura

11/6/06

Vocals

e----10---8--------------10---8--------------10---8--------------------------------
B--8--------11-10-11---8--------11-10-11---8--------11-10-11---------------11-10-11
G--------------------------------------------------------------10-10-10-10---------
D----------------------------------------------------------------------------------
A----------------------------------------------------------------------------------
E----------------------------------------------------------------------------------

e--11--10---------------13--11--10-8--8-10--11--10-------------10---11-8-----------
B----------11--10---11----------------------------------11----------------11--10h11
G----------------------------------------------------12----------------------------
D----------------------------------------------------------------------------------
A----------------------------------------------------------------------------------
E----------------------------------------------------------------------------------

e------------------------------------------------
B-----10---11-11---------10---11-11----------11--
G--10-----------------10---------------10h12-----
D------------------------------------------------
A------------------------------------------------
E------------------------------------------------

e-------------------------------------------------------
B-----10---11-13b-11-----------------10---11-11----13---
G--10--------------------12p10----10------------------12
D-------------------------------------------------------
A-------------------------------------------------------
E-------------------------------------------------------

e----------------------------------------------------------
B----------------------------------------------------------
G---------------------7-8-------------------------7--8-----
D--10-8-10-8-10-8-10-------10---9-7-9-7-9-7-9--10-------10-
A----------------------------------------------------------
E----------------------------------------------------------

e-------------------------------------------------
B-------------------------------------------------
G--------8-----------------------------7--8--10s12 <--hold
D--8-10-----10-8-10--10-8-10--10-8-10-------------
A-------------------------------------------------
E-------------------------------------------------

e-------------------------------------------------------------
B-------------------------------------------------------------
G--10------12--------13--12---------------8---------8-------12
D-----10-------10-9----------9--10---8h10-----8-10-----8-9----
A-------------------------------------------------------------
E-------------------------------------------------------------

Repeat from beginning then...

e----10---8--------------10---8--------------10---8--------------------------------
B--8--------11-10-11---8--------11-10-11---8--------11-10-11---------------11-10-11
G--------------------------------------------------------------10-10-10-10---------
D----------------------------------------------------------------------------------
A----------------------------------------------------------------------------------
E----------------------------------------------------------------------------------

e--11--10---------------13--11--10-8--8-10--11--10-------------10---11-8--------
B----------11--10---11----------------------------------11----------------11--10
G----------------------------------------------------12-------------------------
D-------------------------------------------------------------------------------
A-------------------------------------------------------------------------------
E-------------------------------------------------------------------------------

e--13------------13-13-15-13-11-10-11--13---------------11--10-11--13------
B-------11----------------------------------11-------11---------------15p13
G-------------10----------------------------------12-----------------------
D--------------------------------------------------------------------------
A--------------------------------------------------------------------------
E--------------------------------------------------------------------------

e-----------------------------------------------------------------10--8--11--10
B--11-10---11-----10---11------------------------------------------------------
G--------------10----------10-8-7-8-7-8-10-10-12p10---/15-----10---------------
D------------------------------------------------------------------------------
A------------------------------------------------------------------------------
E------------------------------------------------------------------------------

That's basically it. It's just a matter of repeating a few parts now.
Login or Register to remove this ad.

24 comments on Hikari

Excuse me.... Could you

Excuse me.... Could you reformat this? I can understand some parts but the other ones are slipping me by even with the music. If you could use an english version and guide with lyrics like on your "Passion (Sanctuary)" tab, I'd be extremely grateful. You see, these are my two favorite songs and it'd be awesome if I could play them. And if needed I could offer the english version. Any help is much appreciated. Thank you!

If you could provide the

If you could provide the english lyrics to this song I'm sure I could match them up for you.

awesome

awesome

Oops. Sorry for the

Oops. Sorry for the critisism. All it took was a few more close listens to the song and I was able to match the tabs to the melody. Thank you again for posting this tab!

I like this rock/metal

I like this rock/metal version

cool xD

cool xD

Very nice

Very nice

alot of times you switched

alot of times you switched the 10s and 11s

oops i was thinkin

oops i was thinkin backwards! :P

Oh, this is lovely! I've

Oh, this is lovely! I've been looking for this tablature for AGES, and I'm so glad to have found one that is absolutely perfect! This is great! Thanks for contributing! ^_^

I want the rising sun one =]

I want the rising sun one =] more metall xD

actually, could you possibly

5

actually, could you possibly reformat this, i'm still new at playing guitar and really want to learn this song, thanks

This is the easiest guitar

This is the easiest guitar tabs can go :O

heyy, this is one of my most

heyy, this is one of my most favourite songs and is it possible if someone (hint hint bear!) tabs out a full solo guitar version of it? i really LOVE this song to bits!! *begs*!!

cool

5

cool

Good song, but not written

Good song, but not written by Yoko Shimomura. It was written by Utada Hikaru.

It was actually written by

It was actually written by Tetsuya Nomura for Utada to sing.

In english please?

can someone plz do the english version of this? "Simple & Clean"?

the Tabs of course

5

thank you very, much i've been looking for tabs for this song for forever. They were all wrong these tabs sounds closest to the song =]

great tab

thanks for the tab its the best i've found so far

Good work, but there are some things missing...

Just on the last stroke. The last four notes sound like they could use some 'build up', if you know what I mean.

perfect tab

I love playing this along with the orchestral version. Perfect.

great tab

Nice tab. Best one i've played so far.

I think danny865 is right. there needs to be a bit of build up before those notes. you know, like a quick 4 note thing?

Also on the part where its:

e--13------------13-13-15-13-11-10-11--13---------------11--10-11--13------
B-------11----------------------------------11-------11---------------15p13
G-------------10----------------------------------12-----------------------
D--------------------------------------------------------------------------
A--------------------------------------------------------------------------
E--------------------------------------------------------------------------

I think it would sound better if it ended as:

e--13------------13-13-15-13-11-10-11--13---------------11--10-11--13-10-8--
B-------11----------------------------------11-------11--------------------
G-------------10----------------------------------12-----------------------
D--------------------------------------------------------------------------
A--------------------------------------------------------------------------
E--------------------------------------------------------------------------

just a minor change at the last few notes

I love this song. Awesome

I love this song. Awesome tab! Thanks a lot!

And I second that request up there for a solo guitar version. I posted a formal request ages ago, but no luck. I play more acoustic now, so if anyone sees this...