Login or Register to remove this ad.

Dearly Beloved (Kingdom Hearts) Guitar Tab

Submitted: Jul 01, 2008 by Songe Nuit (Last updated: Oct 18, 2009)

4.88889
Average: 4.9 (18 votes)
Download | Listen
Game: Kingdom Hearts
Composer(s): Yoko Shimomura
Style: Arrangement, Fingerstyle
Series: Kingdom Hearts

AutoScroll: Slow | Medium | Fast
                                Dearly Beloved (Kingdom Hearts)                               


                                                          Arranged by Songe Nuit
                                                           June 21th, 2008



       S S S S S S S S  S S S S S S S S    S S S S S S S S S S S S S S S S  
E||----7-----7----------0-----0-9-----9-|--7-----7---------0-----0-9-----9-|
B||------8-----7-----7----0-------0-----|----0-----7-----7---0-------0-----|
G||*-------7-----7----------7-------0---|------6-----6---------6-------6---|
D||*---------------9--------------------|--------------7-------------------|
A||---10---------------10---------------|--0---------------0---------------|
E||-------------------------------------|----------------------------------|


                                   |---3---|           
   S  S S  S S  S S S  S  S  S  S  T   T   T  S  S  S  
--10------10-9------9-14-------14-12h-14p-12-------12-|
-----10--------10--------10------------------10-------|
--------9---------9---------11------------------11----|
---0-------------------0------------------------------|
------------------------------------------------------|
------------------------------------------------------|


   S  S S  S S  S S S S S S S S S S S     S S S S S S S S  S S S S S S S S  
--10------10-9------9-7-----7-5-----5-|---7-----7----------0-----0-9-----9-|
-----10--------10-------7-------7-----|-----8-----7-----7----0-------0-----|
--------9---------9-------7-------7---|-------7-----7----------7-------0---|
---0------------------0---------------|---------------9--------------------|
--------------------------------------|--10---------------10---------------|
--------------------------------------|------------------------------------|


  S S S S S S S S S S S S S S S S  
--7-----7---------0-----0-9-----9-|
----0-----7-----7---0-------0-----|
------6-----6---------6-------6---|
--------------7-------------------|
--0---------------0---------------|
----------------------------------|


                                |---3---|          
   S S S  S S S S S  S S  S  S  T   T   T S  S  S  
--10-----10-9-----9-14------14-12h-14p-12------12-|
-----7--------7--------0------------------0-------|
-------7--------7--------11-----------------11----|
--------------------12----------------------------|
--------------------------------------------------|
---7----------------------------------------------|


  1.---------------------------      2.-------------------------  NH    
   S S S  S S S S S S S S S  Q          S S S  S S S S S S S S S   Q     
--10-----10-9-----9-7-----7-14-----||--10-----10-9-----9-7-----7--------|
-----7--------7-------7-----12-----||-----7--------7-------7-----<>7----|
-------7--------7-------7---11----*||-------7--------7-------7---<>7----|
----------------------------------*||-----------------------------------|
-----------------------------------||-----------------------------------|
---7----------------7--------------||---7----------------7-------<>7----|


  ^                  
  W                  
-------------------||
--0----------------||
--2----------------||
--0----------------||
-------------------||
--3----------------||




Duration Legend
---------------
W - whole
H - half
Q - quarter
E - 8th
S - 16th
T - 32nd
X - 64th
. - note dotted
|-n-|  - n-tuplets
L - tied note
Login or Register to remove this ad.

7 comments on Dearly Beloved

Great arrangement. I really

Great arrangement. I really like the chord that it ends on.

Nice job man

5

Nice job man

Very Goood

5

Very nice job

Nice job

5

Nice job

Awesome Ps: as

well I hope Songe Nuit =

5

well I hope Songe Nuit = youtubes SongeLeReveur, otherwise this is clearly stolen from him ;)

http://www.youtube.com/watch?v=jJgAj8shibo

The tab in the video

The tab in the video description says "Arranged by Songe Nuit", so I think it's okay :-)