Dearly Beloved (Kingdom Hearts) Guitar Tab

Submitted: Oct 02, 2007 by archard (Last updated: Oct 02, 2007)

4.142855
Average: 4.1 (7 votes)
Download | Listen
Game: Kingdom Hearts
Composer(s): Yoko Shimomura
Style: Transcription
Series: Kingdom Hearts

AutoScroll: Slow | Medium | Fast
Dearly Beloved

Kingdom Hearts

Tabbed by: Richard Jackson

Email: [email protected]

Composer: Yoko Shimomura

Tuning:EADGBe

e|7-7---------9-9-7-7---------9-9-10-10-14-14-12h14p12-10-10-9-9-7-7-5-5-----|
B|----7-7-5-5---------7-7-5-5------------------------------------------------|
G|---------------------------------------------------------------------------|
D|---------------------------------------------------------------------------|
A|---------------------------------------------------------------------------|
E|---------------------------------------------------------------------------|

e|7-7---------9-9-7-7---------9-9-10-10-14-14-12h14p12-10-10-9-9-7-7-14-14---|
B|----7-7-5-5---------7-7-5-5------------------------------------------------|
G|---------------------------------------------------------------------------|
D|---------------------------------------------------------------------------|
A|---------------------------------------------------------------------------|
E|---------------------------------------------------------------------------|

e|7-7---------9-9-7-7---------9-9-10-10-14-14-12h14p12-10-10-9-9-7-7-5-5-----|
B|----7-7-5-5---------7-7-5-5------------------------------------------------|
G|---------------------------------------------------------------------------|
D|---------------------------------------------------------------------------|
A|---------------------------------------------------------------------------|
E|---------------------------------------------------------------------------|

e|7-7---------9-9-7-7---------9-9-10-10-14-14-12h14p12-10-10-9-9-7-7-14-14---|
B|----7-7-5-5---------7-7-5-5------------------------------------------------|
G|---------------------------------------------------------------------------|
D|---------------------------------------------------------------------------|
A|---------------------------------------------------------------------------|
E|---------------------------------------------------------------------------|

Just Continue That the Whole Time.

Legend

h - hammer-on
p - pull-off
Login or Register to remove this ad.

15 comments on Dearly Beloved

Great sheet. But the only

Great sheet. But the only thing missing is the short build up. You know, that introduction before this part of the song is played.

Besides that, great!

I believe there should be

I believe there should be another 9 on the high e, before the 14. so like... -9-9-10-10-9-9-14-14--12h14p12

At least that's how it sounds when I listen to the midi, and it sounds better when I play it that way as well.

It could just be me. I dunno.

Actually, it's not a 9, it's

Actually, it's not a 9, it's a 7. 9-9-10-10-7-7-14-14-

My bad, make that a 5

My bad, make that a 5

yeah its 9 not 5. if it

yeah its 9 not 5. if it sounds right on your guitar then try tuning it ecause it is 5.

great site btw!:)

I don´t underdtand tabs...

I don´t underdtand tabs... I need sheet music, lol. Although... This are piano or guitar tabs?

i agree with yosho

i agree with yosho

I think it's okay both ways,

I think it's okay both ways, I personally like 9 better but I think that 5 works too.

It's a 7, not a 9 (two 7's,

It's a 7, not a 9 (two 7's, actually), and following the 12h14p12 there should be another 12. For anyone not able to figure out the rhythm, each pair is a dotted quarter followed by an eighth, the little hammer-on/pull-off series is two sixteenths followed by a quarter.

Great tab, but i think you

Great tab, but i think you should tab the piano part to, i think i will be a little more interessting to hear thst way

This is the extended part

This is the extended part from KH2 when you beat the game and it give's you your % of game completion.

e|7---9---5---7---12---10----12---12---14---10----12--
B|----------------------------------------------------
G|----------------------------------------------------
D|----------------------------------------------------
A|----------------------------------------------------
E|----------------------------------------------------

e|7---9---5---7---12---10----12---12---14---10---7---5---
B|-------------------------------------------------------
G|-------------------------------------------------------
D|-------------------------------------------------------
A|-------------------------------------------------------
E|-------------------------------------------------------

great tab, flowed naturally.

great tab, flowed naturally. great song, even the instrumental version is heart-warming

yea, Yosho was right, it

yea, Yosho was right, it sounds better with those 9s.
Ademisk you're just wayyyyyyyy off, maybe some guitar tuning will help :O?

no, wait, he might be

no, wait, he might be right.
i tried paying around with it and it turned in to another part of the song, but it was the piano part.
that must be why it sounded wrong, it didn't go to that part.

You're Close

Everything needs to be moved up one fret. Thats how its played on the piano.