Ads

Old Friends, Old Rivals (Kingdom Hearts 2) Guitar Tab

Submitted: Oct 03, 2007 by Kabukibear (Last updated: Sep 20, 2009)

5
Average: 5 (7 votes)
Download | Listen
Game: Kingdom Hearts 2
Composer(s): Yoko Shimomura
Style: Arrangement, Fingerstyle
Series: Kingdom Hearts

AutoScroll: Slow | Medium | Fast
Old Friends, Old Rivals                             
~Kingdom Hearts II~
Composed by: Yoko Shimomoura
Arranged by: Justin Lincoln



     E  E  E  E  E  E  E  E     E  E  E  E  E  E  E  S S  
E||--------------------------|---------------------------|
B||--------------------------|-------------------------0-|
G||--------------------------|-----------------------2---|
D||-----2-----2-----2-----2--|-----2-----2-----2---------|
A||--0-----0-----0-----0-----|--------------0-----0------|
E||--------------------------|--4-----4------------------|


    E  E  E  E  E  S S E  E     E  S S E  E  E  E  E  E   
|----------------------------|---------------------------|
|---1--1--1--1--1--3-1-0-----|--1--3-1-0-----0-----------|
|*------------------------2--|------------2-----2--1-----|
|*-----2-----2-----2------2--|-----2------2-----2-----2--|
|---0-----0-----0------0-----|--0------0-----------------|
|----------------------------|---------------0-----0-----|


  E  E  E  E  E  S S E  E     E  S S E  E  E  E  E  S S  
---------------------------|----------------------------|
--1--1--1--1--1--3-1-0-----|--1--3-1-0----------------0-|
------------------------2--|------------2--1-----2--2---|
-----2-----2-----2------2--|-----2------2-----2---------|
--0-----0-----0------0-----|--0------0-----------0------|
---------------------------|---------------0------------|


  E  E  E  E  E  S S E  E     E  S S E  E  E  E  E  E   
---------------------------|---------------------------|
--1--1--1--1--1--3-1-0-----|--1--3-1-0-----0-----------|
------------------------2--|------------2-----2--1-----|
-----2-----2-----2------2--|-----2------2-----2-----2--|
--0-----0-----0------0-----|--0------0-----------------|
---------------------------|---------------0-----0-----|


  E  E  E  E  E  S S E  E     E  S S E  E  E  E  E  S S  
---------------------------|----------------------------|
--1--1--1--1--1--3-1-0-----|--1--3-1-0--------------0-1-|
------------------------2--|------------2--1-----2------|
-----2-----2-----2------2--|-----2------2-----2---------|
--0-----0-----0------0-----|--0------0-----------0------|
---------------------------|---------------0------------|


  E  S S E  E  E  S S S S S S    E  S S E  E  S S S S E  E   
-------0-1--5---------0-------|------------1--0-------0-----|
--3--3---------1--1-3---3-1---|--0--0-1-3-------3-1-3-------|
----------------------------2-|--------------------------2--|
--0------0--------------------|-----------------------------|
---------------3------3-------|--2------2-----3-------3-----|
------------------------------|-----------------------------|


  E  S S E  E  E  S S S S S S    E  S S E  E  E  E  E  S S  
-------0-1--5---------0-------|------------1---------------|
--3--3---------1--1-3---3-1---|--0--0-1-3-----1--0-----0-1-|
----------------------------2-|---------------------2------|
--0------0--------------------|----------------------------|
---------------3------3-------|--2------2-----3--2--0------|
------------------------------|----------------------------|


  E  E  E  E  E  S S E  E     E  S S E  E  E  E  E  E   
---------------------------|---------------------------|
--2--2--2--2--2--3-2-0-----|--2--3-2-0-----0-----------|
------------------------2--|------------2-----2--1-----|
-----2-----2-----2------2--|-----2------2-----2-----2--|
--0-----0-----0------0-----|--0------0-----------------|
---------------------------|---------------0-----0-----|


  E  E  E  E  E  S S E  E     E  S S E  E  E  E  E  S S  
---------------------------|----------------------------|
--2--2--2--2--2--3-2-0-----|--2--3-2-0----------------0-|
------------------------2--|------------2--1-----2--2---|
-----2-----2-----2------2--|-----2------2-----2---------|
--0-----0-----0------0-----|--0------0-----------0------|
---------------------------|---------------0------------|


  E  E  E  E  E  S S E  E     E  S S E  E  E  E  E  E   
---------------------------|---------------------------|
--2--2--2--2--2--3-2-0-----|--2--3-2-0-----0-----------|
------------------------2--|------------2-----2--1-----|
-----2-----2-----2------2--|-----2------2-----2-----2--|
--0-----0-----0------0-----|--0------0-----------------|
---------------------------|---------------0-----0-----|


  E  E  E  E  E  S S E  E     E  S S E  E  E  E  E  S S  
---------------------------|----------------------------|
--2--2--2--2--2--3-2-0-----|--2--3-2-0--------------0-2-|
------------------------2--|------------2--1-----2------|
-----2-----2-----2------2--|-----2------2-----2---------|
--0-----0-----0------0-----|--0------0-----------0------|
---------------------------|---------------0------------|


  E  S S E  E  E  S S E  E      E   S S  E   E  E  S  S  E   E    
-------0----5------------7--|---------------10--------------12S--|
--3--3---6----------7-9-----|---------8-10------9--9-10-12-------|
---------------9--9---------|--10--10----------------------------|
--0------0------------------|------------------------------------|
---------------7------7-----|---8--------8-----------------------|
----------------------------|-------------------0--------0-------|


  S S S S S S S S S S S S S S S S    S S S S S S S S Q    Q       
----------------------------------|-----------------------5-----||
----------------------------------|-----------------------5-----||
----------------------------------|------------------2----5----*||
--2-3-2-3-2-3-2-3-2-3-2-3-2-3-2-3-|--2-3-2-3-2-3-2-3-2---------*||
--0-------0-------0-------0-------|------------------0----0-----||
----------------------------------|--4-------4------------------||


  W                  
--L----------------||
--L----------------||
--L----------------||
-------------------||
--L----------------||
-------------------||




Duration Legend
---------------
W - whole
H - half
Q - quarter
E - 8th
S - 16th
T - 32nd
X - 64th
. - note dotted
|-n-|  - n-tuplets


Tablature Legend
----------------
L - tied note
\ -  slide into from above or out of downwards
Login or Register to remove this ad.

3 comments on Old Friends, Old Rivals

What a fun guitar tab to

What a fun guitar tab to play! Everything feels so solid!

agreed!

agreed!

really fun :]

5

It's fun to try and play this fast >:)