Ads

The Wonderful Stars Walk is Wonderful (Katamari Damacy) Guitar Tab

Submitted: Jul 07, 2008 by CHICKENWING241 (Last updated: Jul 07, 2008)

4
Average: 4 (3 votes)
Download | Listen
Game: Katamari Damacy
Composer(s): Yu Miyake
Style: Transcription

This song is also called Overworld Theme

AutoScroll: Slow | Medium | Fast
Katamari Damacy ps2 ‘The Wonderful Stars Walk is Wonderful’ or 
‘overworld theme’



|--------|--------|--------|--------|
|----1---|----6---|5-------|--------|
|--2-----|--7-----|--5---5-|--5-----| 
|3-------|8-------|----5---|7--/8-7-|
|--------|--------|--------|--------|
|--------|--------|--------|--------|


The ending is sometimes like this


|--------|
|----1---|
|--2-----|
|3-------|
|--------|
|--------|
Or
|--------|
|----6---|
|--5-----|
|7-------|
|--------|
|--------|


The easier way to play it (noob style) but it doesn’t 
sound that much like the one in the game 

|--------|----1---|0-------|--------|
|----1---|--3-----|--1---1-|--1-----|
|--2-----|3-------|----0---|2--/3-2-|
|3-------|--------|--------|--------|
|--------|--------|--------|--------|
|--------|--------|--------|--------|


And then the endings
Login or Register to remove this ad.

2 comments on The Wonderful Stars Walk is Wonderful

Uhh, I think you're missing

Uhh, I think you're missing some notes, shouldn't it be liek this?

|--------|--------|--------|--------|
|----1---|----6---|5-------|--------|
|--2---2-|--7---7-|--5---5-|--5-----|
|3-------|8-------|----5---|7--/8-7-|
|--------|--------|--------|--------|
|--------|--------|--------|--------|

you may be on to something

you may be on to something there :)