Victory Fanfare (Final Fantasy XII) Guitar Tab

Submitted: Feb 14, 2009 by yamsa

4.75
Average: 4.8 (4 votes)
Download | Listen
Game: Final Fantasy XII
Composer(s): Nobuo Uematsu, Hitoshi Sakimoto
Style: Transcription
Series: Final Fantasy

AutoScroll: Slow | Medium | Fast
Victory Fanfare
Final Fantasy XII
Composed by Nobuo Uematsu
Tabbed by Yamsa ([email protected])
2/14/09


(This part is played with something orchestral, so it isn't completely right) 
e --------------------------------------------------------
B --------------------------------------------------------
G ------7----7----3-----5-----7-----5-----7---------------
D ------7----7----3-----5-----7-----5-----7---------------
A --------------------------------------------------------
E -------------------------------------------------------- (only once)

e --------------------------------------------------------   
B ----------------------------------11--11--10------------   
G -----12---10-----12-----10---------------------12---10--   
D --------------------------------------------------------    
A --------------------------------------------------------
E --------------------------------------------------------

e --------------------------------------------------------
B --------------------------------------------------------
G -----12---10-----9-----10-----7~~-----------------------
D --------------------------------------------------------
A --------------------------------------------------------
E --------------------------------------------------------

e --------------------------------------------------------
B ----------------------------------11--11--10------------
G -----12---10-----12-----10---------------------12---10--
D --------------------------------------------------------
A --------------------------------------------------------
E --------------------------------------------------------

e --------------------------------------------------------
B --------------------------11------13~~------------------
G -----12---10-----12-------------------------------------
D --------------------------------------------------------
A --------------------------------------------------------
E --------------------------------------------------------

Repeat the last four boxes as many times as you want
Login or Register to remove this ad.

3 comments on Victory Fanfare

First Comment

5

Amazing tab, bro. I'm gonna tab my version as well, It's a lot lower.

thanks^^

thanks^^
but I put to many streaks between the notes, so it's played a little faster than it might seem in the tab.
but still, thanks.
I'll check out yours when it's up

Très bon

5

Merci pour ce post