Ads

Yuna's Ballad (Final Fantasy X-2) Guitar Tab

Submitted: Oct 02, 2007 by Kabukibear (Last updated: Sep 18, 2009)

4.52941
Average: 4.5 (17 votes)
Download | Listen
Game: Final Fantasy X-2
Composer(s): Noriko Matsueda, Takahito Eguchi
Style: Arrangement, Fingerstyle
Series: Final Fantasy

AutoScroll: Slow | Medium | Fast
Yuna's Ballad
~Final Fantasy X-2~
Composed By: Noriko Matsueda and Takahito Eguchi
Arranged By: Justin Lincoln

Drop D Tuning
bpm=80
                          ^        ^              ^       ^
     H.           Q       Q     E  H        E     Q    E  Q.     Q
E||--------------------|--8----10--7--------0--|--5----7--3-----------|
B||---------------5----|--6--------5-----------|--5-------0------1----|
G||--------------------|-----------0-----------|----------------------|
D||--------------------|--7--------------------|--3-------2-----------|
A||--------------------|-----------------------|----------------------|
D||--------------------|-----------------------|----------------------|

           ^               ^        ^                      ^
  E  E  E  Q.     E  E     H        H             E  E  E  E  H
--3--1--0---------------|--------------------||------------------------|
-----------1---------1--|--1--------3--------||---------0--1--L--------|
--2--2-----2------2-----|--2--------1--------||*-----------2--L--------|
--------2--3------------|--3--------2--------||*-----2-----3--L--------|
-----0------------------|--------------------||---0--------------------|
--0---------------------|--------------------||------------------------|

           ^                         ^                        ^
  E  E  E  Q    E  E  E     E  E  E  Q.     E  E     E  E  E  H        E
----------------------3--|------------------3--0--|-----------------------|
--------0--3-------------|--------0--1------------|--------0--3--------L--|
-----------2----0--0-----|-----------2------------|-----------2--------L--|
-----2-----3-------------|-----2-----3------------|-----2-----3--------L--|
--0----------------------|--0---------------------|--0--------------------|
-------------------------|------------------------|-----------------------|

           ^                       ^                        ^
  E  E  E  Q.     Q       E  E  E  Q.     E  E     E  E  E  H        E
--------3--0-----------|-----------0------------|-----------------------|
--------1--1------1----|--3--1--3--1------1-----|-----1--1-----------1--|
-----0-----2-----------|-----------2---------0--|--2--------0-----------|
-----------3-----------|-----2-----3------------|--3--------2-----------|
--0--------------------|--0---------------------|-----------------------|
-----------------------|------------------------|--0--------2-----------|

           ^                        ^
  E  E  E  Q    E  Q       E  E  E  Q    E  Q       E  E  E  E  E  E  E  E
------------------------|--------3--0------------|-----------0--------------|
--0-----1--0------------|-----------1-------1----|--3--1--3--------------3--|
--0--------0-------0----|-----0-----0------------|--2-----------------5-----|
-----2----------2-------|-------------------2----|--3-----0--------3--3-----|
--0---------------------|----------------3-------|-----0--------------------|
-----------5------------|--3--------2------------|--0-----------5-----------|

  ^          ^                                           ^
  E  E  Q    H           Q    Q    Q    Q       E  E  E  Q    E  Q
--1--3--0-------------|--8----7----3---------|-------------------3----|
----------------------|--6---------0----1----|--------0--1------------|
--0----------2--------|-------7--------------|-----------2----0-------|
-------------3--------|-----------------3----|-----2-----3------------|
--3----------3--------|----------------------|--0---------------------|
-------------3--------|----------------------|------------------------|

           ^                         ^                         ^
  E  E  E  Q    E  E  E     E  E  E  Q    E  E  E     E  E  E  E  H
-------------------3--0--|----------------8--7-----|-----------------------|
--------0--3-------------|--------0--1----------8--|--------0--3--L--------|
-----------2----0--------|-----------2-------------|-----------2--L--------|
-----2-----3-------------|-----2-----3-------------|-----2-----3--L--------|
--0----------------------|--0----------------------|--0--------------------|
-------------------------|-------------------------|-----------------------|

           ^                       ^                        ^
  E  E  E  Q.     Q       E  E  E  Q.     E  E     E  E  E  H        E
--------3--0-----------|-----------0------------|-----------------------|
--------1--1------1----|--3--1--3--1------1-----|-----1--1-----------1--|
-----0-----2-----------|-----------2---------0--|--2--------0-----------|
-----------3-----------|-----2-----3------------|--3--------2-----------|
--0--------------------|--0---------------------|-----------------------|
-----------------------|------------------------|--0--------2-----------|

           ^                        ^
  E  E  E  Q    E  Q       E  E  E  Q    E  Q       E  E  E  E  E  E  E  E
------------------------|--------3--0------------|-----------0--------------|
--0-----1--0------------|-----------1-------1----|--3--1--3--------------3--|
--0--------0-------0----|-----0-----0------------|--2-----------------5-----|
-----2----------2-------|-------------------2----|--3-----0--------3--3-----|
--0---------------------|----------------3-------|-----0--------------------|
-----------5------------|--3--------2------------|--0-----------5-----------|

             ^                                     ^
  E  E  Q    Q    Q       Q    Q    Q    Q         W
--1--3--0---------8----|--7----3---------------||--0----------------||
------------------6----|-------1----3----1-----||--0----------------||
--0----------2---------|--7---------0---------*||--2----------------||
-------------3---------|-----------------3----*||--2----------------||
--3----------3---------|-----------------------||--3----------------||
-------------3---------|-----------------------||--3----------------||

Duration Legend
---------------
W - whole
H - half
Q - quarter
E - 8th
S - 16th
T - 32nd
X - 64th
. - note dotted
|-n-|  - n-tuplets

Tablature Legend
----------------
^ - brush up
Login or Register to remove this ad.

10 comments on Yuna's Ballad

That got to me lol

That got to me lol

Eh?

Eh?

I have been following your

I have been following your stuff in this site, youtube and some other places. I really love everything you have done. This is another fantastic piece that I will work on.

5/5

Nice job

This is amazing, thankyou!

This is amazing, thankyou!

:) great tab, i've been

:) great tab, i've been playing it since summer... and was afraid i wouldn't find it again.
The only thing i don't like about it is that string number 6 in D...
I don't have the patience to tune my guitar every time i want to play this, making my either to skip those notes or to have to shift them according to standart tuning (string in E)
C D E F G A B C

am i dropping my d

am i dropping my d wrong?!
mine sonuds totally out of tune ._.

I don't know if you're

I don't know if you're dropping it wrong.
If the guitar strings go

1)E
2)B
3)G
4)D
5)A
6)E

Then tune your lowest string, the 6th string down until it matches up with your 4th string, just an octave below it. You should be able to play the 4th string and the re-tuned 6th string and they should sound the same, just one lower than the other.

I'm not sure what you mean

I'm not sure what you mean by the CDEFGABC thing. The piece is in A minor already. If you want to be able to play it without having to drop the D you could transpose everything up a step to B minor but it really is easier to play by just dropping the D down. I play in this tuning alot so I guess I'm used to tuning to it quickly, I dunno

that was brilliant, thanks

5

that was brilliant, thanks man

if I could rate 6 stars I

if I could rate 6 stars I would