Ads

Eternity: Memory of Lightwaves (Final Fantasy X-2) Guitar Tab

Submitted: Oct 02, 2007 by Stamen47 (Last updated: Sep 18, 2009)

4.57143
Average: 4.6 (7 votes)
Download | Listen
Game: Final Fantasy X-2
Composer(s): Noriko Matsueda, Takahito Eguchi
Style: Arrangement, Fingerstyle
Series: Final Fantasy

AutoScroll: Slow | Medium | Fast
Eternity
Final Fantasy X-2
Composed by Nobuo Uematsu

Guitar
      E  E  E  E  E  E     E  E  E  E  E  E     E  E  E  E  E  E
E||---------------------|-----------0--------|--------0--2--------|
B||---------1--3--3-----|--------3-----3--0--|-----0--------3-----|
G||*-----0-----------2--|-----2--------------|-----------------2--|
D||*--------------------|--0-----------------|--2-----------------|
A||---3-----------------|--------------------|--------------------|
E||---------------------|--------------------|--------------------|

  E  E  E  E  E  E       E  E  E  E  E  E     E  E  E  E  E  E
---------------------||--3-----2-----------|--3-----2-----------|
--------2--3--3------||--------1--3-----1--|-----------3-----1--|
-----------------0--*||-----0--------0-----|-----2--------------|
-----4--------------*||--------------------|--0-----------0-----|
--2------------------||--3-----------------|--------------------|
---------------------||--------------------|--------------------|

  E  E  E  E  E  E     E  E  E  E  E  E     E  E  E  E  E  E
--------2--2-----0--|--2-----------------|--3-----2-----------|
--0-----------3-----|--------2--3--------|--------1--3-----1--|
-----------0--------|--------------4-----|-----0--------0-----|
--------2-----------|-----4-----------4--|--------------------|
-----2--------------|--2-----------------|--3-----------------|
--0-----------------|--------------------|--------------------|

  E  E  E  E  E  E     E  E  E  E  E  E     E  E  E  E  E  E
--3-----2-----------|--------5--5-----5--|--5-----7--3--------|
-----------3-----1--|--0-----7--7-----7--|--7-----8--5--------|
-----2--------------|-----------0--------|-----------4--------|
--0-----------0-----|--------------------|-----4--5-----2--0--|
--------------------|-----2--7-----7-----|--------------------|
--------------------|--0--------------7--|--0-----------------|

  E  E  E  E  E  E     E  E  E  E  E  E     E  E  E  E  E  E
--3-----2-----------|--3-----2-----------|--------2--2-----0--|
--1-----1--3-----1--|--3--------3-----1--|--0-----------3-----|
-----0--------0-----|-----2--------------|--0--------0--------|
--------------------|--0-----------0-----|--4-----2-----------|
--3-----------------|--------------------|-----2--------------|
--------------------|--------------------|--0-----------------|

  E  E  E  E  E  E     E  E  E  E  E  E     E  E  E  E  E   E
--2-----------------|--3-----2-----------|--3-----2---------8--|
--3-----2--3--------|--0-----1--3-----1--|--3--------3-----10--|
--------------4-----|-----0--------0-----|-----2---------------|
-----4-----------4--|--------------------|--0-----------0------|
--2-----------------|--3-----------------|---------------------|
--------------------|--------------------|---------------------|

  E  E   E   E  E  E     E  E  E  E  E  E       E  E  E  E  E  E
--7------8--10-----7--|--5-----7--3--------||---------------------|
--8-----10--12-----8--|--7-----8--5--------||---------1--3--3-----|
----------------------|-----------4--------||*-----0-----------2--|
----------------------|--------------2--0--||*--------------2--4--|
----------------------|--------------------||---3-----------------|
--0--0-------0--0-----|--0--0--------------||---------------------|

  E  E  E  E  E  E     E  E  E  E  E  E     E  E  E  E  E  E
-----------0--------|--------0--2--------|---------------------||
--------3-----3--0--|-----0--------3-----|--------2--3--3------||
-----2-----------0--|--------------0--2--|--------------2--0--*||
--0-----------4-----|--2--------------4--|-----4-----------2--*||
--------------------|--------------------|--2------------------||
--------------------|--------------------|---------------------||

  Q    Q.     E     E  E  E  E  E  E     H        E  E     Q.     Q    E
-----------------|--------------------|-----------------|--2--------------|
--1--------------|-----------------1--|-----------------|--3------1----0--|
--0--------------|--------------0-----|--2--------------|--2--------------|
--0----0------2--|--0--------0--------|--4--------------|--4--------------|
--3--------------|-----0--3-----------|--2--------2--3--|-----------------|
-----------------|--------------------|-----------------|-----------------|

  Q    E  Q.        E  E  E  E  E  E     Q    Q.     E      Q.     E   E  E
--3--------------|-----------------3--|--5--------------|--10----------------|
--3--------------|-----------0--1-----|--5--------------|--10----------------|
--2--------------|--------0-----------|--4--------------|----------0------0--|
--2--------------|-----2--------------|--4----0------0--|---0---------12-----|
--0----2--2------|--------------------|--0--------------|-------------12-----|
-----------------|--0-----------------|-----------------|--------------------|

  E  E  E  E  E  E     E  E  E  E  E  E     E  E  E  E  E  E
--3--------2--------|--0--------2--------|--3--------2--------|
--------1--------1--|--------1--------1--|--------3--------3--|
-----0--------0-----|-----0--------0-----|-----2--------2-----|
--------------------|--------------------|--------------------|
--0-----------------|--0-----------------|--2-----------------|
--------------------|--------------------|--------------------|

  E  E  E  E  E  E     E  E  E  E  E  E     E  E  E  E  E  E
--3--------5--------|--3--------2--------|--0--------2--------|
--------3--------3--|--------1--------1--|--------1--------1--|
-----2--------2-----|-----0--------0-----|-----0--------0-----|
--------------------|--------------------|--------------------|
--3-----------------|--0-----------------|--------------------|
--------------------|--------------------|--------------------|

                                                 |--3--|  |--3--|
  E  E  E  E  E  E     E  E  E  E.  S E     Q    E  E  E  E  E  E
--3--------2--------|--3-----3--5--------|----------------------5--|
--------3--------3--|-----3-----3--------|-------------3-----3-----|
-----2--------2-----|--------------------|----------2-----2--------|
--0-----0--0--------|--0-----0--0--------|--0----0-----------------|
--------------------|-----------0--------|-------------------------|
--------------------|--------------------|-------------------------|

  |---3---|
  E   E   E   Q    Q       E  E  E  E  E  E     E  E  E  E  E  E
---------10-------------|--3-----2-----------|--3-----2-----------|
-----10------10---------|--3--------3--------|--3--------3-----1--|
--7---------------------|--0-----0--0--------|--2-----2--2-----0--|
-------------------0----|-----------0--2--4--|--0-----0--2--4-----|
------------------------|--3-----3-----------|-----0--------------|
------------------------|-----3--------------|--------------------|

  E  E  E  E  E  E     E  E  E  E  E  E     E  E  E  E  E  E
--------2--2--------|-----------------0--|--3-----2-----------|
--0-----0--0--------|-----------0--------|--3--------3--------|
--0-----0--0--0-----|--------2-----2-----|--0-----0--0--------|
--4-----2--4-----4--|-----0--------------|-----------0--2--4--|
-----2--------------|--2-----------------|--3-----3-----------|
--0-----------------|--------------------|-----3--------------|

  E  E  E  E  E  E     Q    E  E  E  E     E  E  E  E  E  E
--3-----2-----------|-------5--5-----5--|--5-----7--3--------|
--3--------3-----1--|--0----7--7-----7--|--7-----7--3--------|
--2-----2--2-----0--|--0----4--4-----4--|--4-----7--4--------|
--0-----0--2--4-----|--4----------------|--------0-----2--0--|
-----0--------------|-------------------|--------------------|
--------------------|--0-------0--0-----|--0--0--------------|

  E  E  E  E  E  E     E  E  E  E  E  E     E  E  E  E  E  E
--3-----2-----------|--3-----2-----------|--------2--2-----0--|
--3--------3--------|--3--------3-----1--|--0-----0--0-----0--|
--0-----0--0--------|--2-----2--2-----0--|--0-----0--0--0--0--|
-----------0--2--4--|--0-----0--2--4-----|--4-----2--4--2--0--|
--3-----3-----------|-----0--------------|-----2--------------|
-----3--------------|--------------------|--0-----------------|

  E  E  E  E  E  E     E  E  E  E  E  E     E  E  E  E  E   E
--2-----------------|--3-----2-----------|--3-----2---------8--|
--3-----------------|--3--------3--------|--3--------3-----10--|
--4-----0--2-----0--|--0-----0--0--------|--2-----2--2---------|
-----0--------0-----|-----------0--2--4--|--0-----0--2--0------|
--2-----------------|--3-----3-----------|-----0---------------|
--------------------|-----3--------------|------------------0--|

  E  E   E   E  E  E     E  E  E  E  E  E     E  E  E  E  E  E
--7------8--10-----7--|--5-----7--3--------|--------------------|
--8-----10--12-----8--|--7--------3--------|--------------3-----|
----------------------|--7-----7--4--------|--0--------------2--|
----------------------|--9-----9-----2--0--|-----------0--------|
----------------------|--------------------|--3-----3-----------|
--0--0-------0--0-----|-----0-----0--------|-----3--------------|

  E  E  E  E  E  E     E  E  E  E  E  E     E  E  E  E  E  E
--------------------|--------------------|--------------------|
--------------3--0--|--------------3-----|--------------3-----|
--------------------|-----------------2--|-----------------0--|
--0-----0--2--------|--2-----2--4--------|-----------0--------|
-----0--------------|-----2--------------|--2-----4-----------|
--------------------|--------------------|-----2--------------|

  E  E  E  E  E  E     E  E  E  E  E  E     E  E  E  E  E  E
--------------------|--------------------|--------------------|
--------------3-----|--------------3-----|-----------------0--|
-----------------2--|-----------------0--|--------------0-----|
-----------0--------|--0-----0--2--------|--2-----2--4--------|
--3-----3-----------|-----0--------------|-----2--------------|
-----3--------------|--------------------|--------------------|

  E  E  H           H.              H.
--0--5--5--------|---------------|---------------||
--------5--------|---------------|---------------||
--------4--------|---------------|---------------||
--------2--------|---------------|---------------||
--------2--------|---------------|---------------||
--------0--------|---------------|---------------||

Duration Legend
---------------
W - whole
H - half
Q - quarter
E - 8th
S - 16th
T - 32nd
X - 64th
. - note dotted
|-n-|  - n-tuplets
Login or Register to remove this ad.

4 comments on Eternity: Memory of Lightwaves

Marvelous.

Marvelous.

WHAT MEANS -n-tuplets

WHAT MEANS -n-tuplets

It is the duration of the

It is the duration of the notes the |-- n -- | is above.
eg. |-- 3 -- | triplet

Nice you should all check

Nice you should all check out this tab on you-tube awsome
just copy this and put it in address bar
http://ca.youtube.com/watch?v=_H9H-gA8kZA

Its pretty cool its looks hard though.