Ads

Eternity: Memory of Lightwaves (Final Fantasy X-2) Guitar Tab

Submitted: Oct 02, 2007 by Kabukibear (Last updated: Nov 27, 2009)

4.74074
Average: 4.7 (27 votes)
Download | Listen
Game: Final Fantasy X-2
Composer(s): Noriko Matsueda, Takahito Eguchi
Style: Arrangement, Fingerstyle
Series: Final Fantasy

AutoScroll: Slow | Medium | Fast
Eternity: Memory of Lightwaves
~Final Fantasy X-2
Composed by: Noriko Matsueda, Takahito Eguchi
Arranged by: Justin Lincoln

      S S S S S S S S S S S S S S S S    S S S S S S S S S S S S S S S S
E||-----------------------------------|----------------------------------|
B||-----------------------------------|------------------------0---1-----|
G||*----------0---------0---------0---|------0---2-----0---2-------------|
D||*------3---------3---------3-------|----0---------0-----------------0-|
A||-----3---------3---------3---------|----------------------------------|
E||---1-----1---1-----1---1-----1---1-|--3-----3---3-----3---3---3---3---|

  S S S S S S S S S S S S S S S S    S S S S S S S S S S S S S S S S
----------------------------------|----------------------------------|
----------0-----3---1---0---1-----|------------------------1-0-------|
------2---------------------------|----------0---------0-------2-0---|
----2---------2-----------------2-|------4---------4---------------4-|
--0-----0---0-----0---0---0---0---|----2---------2-------------------|
----------------------------------|--0-----0---0-----0---0-----------|

  S S S S S S S S S S S S S S S S    S S S S S S S S S S S S S S S S
----------------------------------|----------------------------------|
----------------------------------|------------------------0---1-----|
----------0---------0---------0---|------0---2-----0---2-------------|
------3---------3---------3-------|----0---------0-----------------0-|
----3---------3---------3---------|----------------------------------|
--1-----1---1-----1---1-----1---1-|--3-----3---3-----3---3---3---3---|

  S S S S S S S S S S S S S S S S    S S S S S S S S S S S S S S S S
----------------0-----------------|----------------------------------|
----------0---------3---1---0-----|----------------------------0-----|
------2---------------------------|----------0---------0---2---------|
----2---------2-----------------2-|------4---------4-----------------|
--0-----0---0-----0---0---0---0---|----2---------2-----------------2-|
----------------------------------|--0-----0---0-----0---0---0---0---|

  E  S E  S S S    E  S E  S E     E  S E  S S S    S S S S S S E
----------------|---------------|----------------|-----------------|
--1--0--------0-|--1--0---------|-----0-0--------|----------0------|
--0----0----0---|--0----0-------|----------0-----|--------0-----0--|
----------------|------------3--|--2---------2---|------4-----4----|
----------------|---------------|--0-----------0-|----2------------|
--1-------1-----|--3-------3----|----------------|--0--------------|

  E  S E  S S S    E  S E  S E     E  S E  S S S    E  S E  S S S
----------------|---------------|----------------|-----0----------|
--1--0--------0-|--1--0---------|-----3-3------3-|--3----0--------|
--0----0----0---|--0----0-------|----------------|--0-------0-----|
----------------|------------3--|--2-------2-----|------------4-0-|
----------------|---------------|--0---------0---|----------------|
--1-------1-----|--3-------3----|----------------|--0-------------|

  E  S E  S S S    E  S E  S E     E  S E  S S S    S S S S S S S S
----------------|---------------|----------------|------------------|
--1--0--------0-|--1--0---------|-----0-0------0-|----------0-------|
--0----0----0---|--0----0-------|------------2---|--------0---0-----|
----------------|------------3--|--2-------2-----|------4-------4---|
----------------|---------------|--0-------------|----2-----------2-|
--1-------1-----|--3-------3----|----------------|--0---------------|

  E  S E  S S S    E  S S S S E     S S S S S S S S    S S S S S S E
----------------|-------------1--|--0---1-3-----0---|------0-----------||
--1--0--------0-|--1--0----------|--------0-------3-|--------1-----0---||
--0----0----0---|--0----0---0----|--2---------0---0-|----0-------0----*||
----------------|----------------|------------------|-----------------*||
----------------|----------------|----0-------------|------------------||
--1-------1-----|--3------3------|----------0-------|--1-------3-------||

  S S S S S S S S S S S S S S S S    S S S S S S S S S S S S S S S S
----------------------------------|----------------------------------|
----------------------------------|------------------------0---1-----|
----------0---------0---------0---|------0---2-----0---2-------------|
------3---------3---------3-------|----0---------0-----------------0-|
----3---------3---------3---------|----------------------------------|
--1-----1---1-----1---1-----1---1-|--3-----3---3-----3---3---3---3---|

  S S S S S S S S S S S S S S S S    S S S S S S S S S S S S S S S S
----------------------------------|----------------------------------|
----------0-----3---1---0---1-----|------------------------1-0-------|
------2---------------------------|----------0---------0-------2-0---|
----2---------2-----------------2-|------4---------4---------------4-|
--0-----0---0-----0---0---0---0---|----2---------2-------------------|
----------------------------------|--0-----0---0-----0---0-----------|

  S S S S S S S S S S S S S S S S    S S S S S S S S S S S S S S S S
----------------------------------|----------------------------------|
----------------------------------|------------------------0---1-----|
----------0---------0---------0---|------0---2-----0---2-------------|
------3---------3---------3-------|----0---------0-----------------0-|
----3---------3---------3---------|----------------------------------|
--1-----1---1-----1---1-----1---1-|--3-----3---3-----3---3---3---3---|

                                                   ^
  S S S S S S S S S S S S S S S S    S S S S S S S H        S
----------------0-----------------|----------------0--------L-|
----------0---------3---1---0-----|----------------0--------L-|
------2---------------------------|----------0-----0--------L-|
----2---------2-----------------2-|------4---------4--------L-|
--0-----0---0-----0---0---0---0---|----2---------2-2--------L-|
----------------------------------|--0-----0---0---0--------L-|

  E  S S S S S S    E  S E  S S S    E  S S S S S S    S S S S S S S S
--1--1-------1---|--0--0------0---|-----------------|----------------0-|
--1--------------|--1-------------|--3--3-------3---|--1---1-0---0-3---|
--0----0---0---0-|--0-------0---0-|--0----0---0---0-|--0-0---0-0---0---|
-----------------|----------------|-----------------|------------------|
-----------------|----------------|-----------------|------------------|
--1------1-------|--1----1--------|--3------3-------|--3-----3-----3---|

  E  S S S S S S    E  S S S S S S    E  S S S S S S    S S S S S S S S
--1--1-------1---|--0----3-------0-|-----------------|------------------|
--1--------------|--1--------1-3---|--3--3-------3---|--1---0---1---3---|
--0----0---0---0-|--0--0---0-------|--0----0---0---0-|----0---0---0---0-|
-----------------|-----------------|-----------------|------------------|
--0------0-------|--0--------------|--2------2-------|--2---------------|
-----------------|-----------------|-----------------|------------------|

  E  S S S S S S    E  S E  S S S    E  S S S S S S    S S S S S S S S
--1--1-------1---|--0--0------0---|-----------------|------------------|
--1--------------|--1-------------|--3--3-------3---|--1---1-0---0-----|
--0----0---0---0-|--0-------0---0-|--0----0---0---0-|----0-----0-----0-|
-----------------|----------------|-----------------|------------------|
-----------------|----------------|-----------------|------------------|
--1------1-------|--1----1--------|--3------3-------|--3-----3-----3---|

  S S S S S S S S    S S S S S S S S    S S S S S S S S    S S S S S S S S
------------------|------------------|------------------|------------------|
------------------|------------------|------------------|----0---0-1---3---|
--2---2-----2-----|--2---2-----2-----|--2---2-0---0-2---|--2-------------0-|
----2-----2-----2-|----2-----2-----2-|----2-----2-----2-|------2-----2-----|
--0-----0-----0---|--0-----0-----0---|--0-----0-----0---|----0-----0-------|
------------------|------------------|------------------|--------------3---|

     ^ v   ^ v ^      ^   ^  ^   ^       ^ v   ^ v ^      ^ v ^  v ^
  E  S S S S S S    S S S E  S S S    E  S S S S S S    S S S E  S S S
-----1-1---1-1-0-|--L-0---0--0---0-|-----------------|---------------0-|
-----1-1---1-1-1-|--L-1---1--1---1-|-----3-3---3-3-1-|--L-1-0-0--0-3---|
-----0-0---0-0-0-|--L-0---0--0---0-|-----0-0---0-0-0-|--L-0-0-0--0-0---|
-----------------|-----------------|-----0-0---0-0-0-|--L-0-0-0--0-0---|
-----------------|-----------------|-----------------|-----------------|
--1------1-------|------1------1---|--3------3-----3-|--L-3---3----3---|

     ^ v   ^ v ^      ^ v ^  ^ v ^       ^ v   ^ v ^    ^ v ^ v ^ v ^ v
  E  S S S S S S    S S S E  S S S    E  S S S S S S    S S S S S S S S
-----1-1---1-1-0-|--L-0-0-3--0-0-0-|-----------------|------------------|
-----1-1---1-1-1-|--L-1-1-1--1-1-1-|-----3-3---3-3-3-|--1-1-0-0-1-1-3-3-|
-----0-0---0-0-0-|--L-0-0-0--0-0-0-|-----0-0---0-0-0-|--0-0-0-0-0-0-0-0-|
-----------------|-----------------|-----0-0---0-0-0-|--0-0-0-0-0-0-0-0-|
--0------0-------|-----------------|--2------2-------|--2-2-2-2-2-2-2-2-|
-----------------|-----------------|-----------------|------------------|

     ^ v   ^ v ^      ^   ^  ^   ^       ^ v   ^ v ^      ^ v ^  v ^
  E  S S S S S S    S S S E  S S S    E  S S S S S S    S S S E  S S S
-----1-1---1-1-0-|--L-0---0--0---0-|-----------------|---------------0-|
-----1-1---1-1-1-|--L-1---1--1---1-|-----3-3---3-3-1-|--L-1-0-0--0-3---|
-----0-0---0-0-0-|--L-0---0--0---0-|-----0-0---0-0-0-|--L-0-0-0--0-0---|
-----------------|-----------------|-----0-0---0-0-0-|--L-0-0-0--0-0---|
-----------------|-----------------|-----------------|-----------------|
--1------1-------|------1------1---|--3------3-----3-|--L-3---3----3---|

  ^ v ^ ^ v ^ ^ v    ^ v ^ ^ v ^ ^ v    ^ v ^ ^ v ^ ^ v    ^ ^ v ^ ^ v ^ v
  S S S S S S S S    S S S S S S S S    S S S S S S S S    S S S S S S S S
------------------|------------------|------------------|--------------0-0-|
--0-0-0-0-0-0-0-0-|--1-1-1-1-1-1-1-1-|--3-3-3-1-1-1-0-0-|--0-1-1-1-3-3-1-1-|
--2-2-2-2-2-2-2-2-|--2-2-2-2-2-2-2-2-|--2-2-2-2-2-2-2-2-|--2-2-2-2-2-2-2-2-|
--2-2-2-2-2-2-2-2-|--2-2-2-2-2-2-2-2-|--2-2-2-2-2-2-2-2-|--2-2-2-2-2-2-2-2-|
--0-0-0-0-0-0-0-0-|--0-0-0-0-0-0-0-0-|--0-0-0-0-0-0-0-0-|--0-0-0-0-0-0-0-0-|
------------------|------------------|------------------|------------------|

                                                             ^  ^ v ^
  E  S E  S S S    S S S S S S S S    E  S E  S S S    S S S E  S S S
----------------|------------------|-------0--------|--------0--0-0-0-|
--1--0--------0-|--1-0---1-0---1-0-|--1--0----------|--------0--0-0-0-|
--0----0----0---|--0---0-----0-----|--2-------0-----|--------0--0-0-0-|
----------------|--0---------------|--2---------2---|------4-4--4-4-4-|
----------------|------------------|--0-----------0-|----2---2--2-2-2-|
--1-------1-----|--3---------------|----------------|--0-----0--0-0-0-|

  E  S E  S S S    S S S S S S S S    S S S S S S S S    S S S S S S S S
----------------|--------------0-1-|--------3---0-----|--------3---------|
--1--0--------0-|--1-0---1-0-------|--1-----------0-1-|--3---0-----1-0---|
--0----0----0---|--0---0-----0-----|------2-----------|----0-----0-----0-|
----------------|--0---------------|----2-----2-------|------------------|
----------------|------------------|--0---------------|------------------|
--1-------1-----|--3---------------|------------------|--0---------------|

  E  S E  S S S    S S S S S S S S    E  S E  S S S    S S S S S S S S
----------------|------------------|----------------|------------------|
--1--0--------0-|--1-0---1-0---1-0-|--1--0--------1-|--3-0---3-0---3-0-|
--0----0----0---|--0---0-----0-----|--0----0----0---|--0---0-----0-----|
----------------|--0---------------|----------------|--0---------------|
----------------|------------------|----------------|------------------|
--1-------1-----|--3---------------|--1-------1-----|--3---------------|

                                        ^
                   |--3--|  |--3--|
  E  S E  S S S    E  E  E  E  E  E     H
----------------|--1--0--1--3--1--3--|--5--------||
--1--0--------3-|--0-----------------|--2--------||
--0----0----0---|--------------------|--2--------||
----------------|--------------------|--2--------||
----------------|--------------------|--0--------||
--1-------1-----|--3-----------------|-----------||

Duration Legend
---------------
W - whole
H - half
Q - quarter
E - 8th
S - 16th
T - 32nd
X - 64th
. - note dotted
|-n-|  - n-tuplets
Login or Register to remove this ad.

22 comments on Eternity: Memory of Lightwaves

awesome tab. Sort off topic

awesome tab. Sort off topic but your legend is real long.

lol, well when I convert the

lol, well when I convert the guitarpro file into ascii it adds that at the end automatically. I'm too lazy to only put the ones actually used in the tab soo, there you have it. ;)

Yeah usually I take off the

Yeah usually I take off the legend if it's pretty long but this tab has kind of a lot of symbols and, like Kabukibear, I'm just too lazy to put only the ones that are needed, lol

Such an awesome tab. Really

Such an awesome tab. Really reminds me of Classical Gas, for the rhythmic drive. Rock on.

Thanks Seth, I'm glad some

Thanks Seth, I'm glad some people enjoy this one. I've had a TON of complaints from people who haaaaate this arrangement with a passion. I guess because so many like the original, that this one, which really extends and rips the other one apart before piecing it back together, that they really don't like this one. I just tried to take the original a step further with this and make something based on Eternity, but also something totally new and different.

I love this arrangement as

I love this arrangement as well. Though, a more "standard" arrangement is on its way thanks to Stamen47, that I'm sure your naysayers will love.

This is a very good version

This is a very good version of this Kabuki.
It's really hard to play, which makes it even more fun to play.
The 2nd version is good too, but it's not as hard.

The other MIDI has better

The other MIDI has better sound quality me thinks - the only turn off on this version

Actually - I think this one

Actually - I think this one is easier to play

DAMN!!!! FREAKIN KUB!

DAMN!!!! FREAKIN KUB! DUDE!!!! I just heard the song all the way through, that part with the strumming, There are no words to describe what I heard there, DAMN lol

Yeah. The strumming portion

Yeah. The strumming portion of the song is great.

You can tell by how many

You can tell by how many times I've commented on this song that I like it lol, but it's great - I took a break from my guitar break just to learn it is how great it is lol

what does this mean

what does this mean -------*| does it mean repeat
-------*|

my bad --------*| --------*|

my bad
--------*|
--------*|

Yeah, it means repeat

Yeah, it means repeat

i love this song its

i love this song its beatiful

very creative!

5

very creative!

Is the intro in this one

Is the intro in this one based on the progression from Radical Dreamers? I found them to use very similar notes.

Nope, just based on the chord

Nope, just based on the chord progression from the original piano version. Whether or not THAT was based on Radical Dreamers is anyone's guess but it's doubtful as it's just a generic progression that is used alot in music.

Thanks for the reply! I only

Thanks for the reply!

I only started playing the guitar a little over a year ago, and this is the first time I noticed this. I asked my friend about it too (He's being playing for over 10 years) and he explained to me that a lot of songs use the same progressions but add some variations to them. Thanks for your answer!

Excellent

5

Love it man, I dig it with a capo on 2 as well..

Great tab, just one thing...

5

As always, just great work. Although this comment may be a tiny bit late (5 years, cough^^), I just stumbled across this tab and really dig it at the moment. Although I never played X-2 the song just has got such a wonderful vibe to it and you can really hear that it's a kabukibear tab.

The one thing I realised though is that the ending on

|--5--------||
|--2--------||
|--2--------||
|--2--------||
|--0--------||
|-----------||
seems a bit forced and I'd possibly change it up by cutting away the last two measures and blending to

|-----------||
|-----------||
|--0--------||
|--3--------||
|--3--------||
|--1--------||

instead.

Don't know if you're ever going to read this one, but thanks for all of your work, it has played a big part of my last years of guitar playing.
Cheers