To Zanarkand (Final Fantasy X) Guitar Tab

Submitted: Jul 22, 2006 by archard (Last updated: Jul 14, 2008)

4.70968
Average: 4.7 (93 votes)
Download | Listen
Game: Final Fantasy X
Composer(s): Nobuo Uematsu, Junya Nakano, Masashi Hamauzu
Style: Transcription
Series: Final Fantasy

AutoScroll: Slow | Medium | Fast
To Zanarkand
Final Fantasy X
Composed by Nobuo Uematsu

7/22/06

Intro

e--0-------0-2-3--------------------0-2
B--------0----------------3-------3----
G------0------------------------2------
D----2----------------------0-3--------
A--------------------------------------
E--------------------------------------

e--7-7-7-7-5---10-3----------0-0-0-0-----3--
B------------------------------------3-----1
G-------------------------------------------
D-------------------------------------------
A-------------------------------------------
E-------------------------------------------

Main Theme

e--0-----0-2-3-2-0-----0--------------0-----0-2-3-2-3-5-3-5-7
B------0-----------3-----3-0--------------0------------------
G------------------------------------------------------------
D------------------------------------------------------------
A------------------------------------------------------------
E------------------------------------------------------------

e--0-----0-2-3-2-0-----0--------------------------------------------
B------0-----------3-----3-0--------------0-0-0-0-----3-------------
G-------------------------------------0-2---------2------0---0------
D--------------------------------------------------------------4-0-2
A-------------------------------------------------------------------
E-------------------------------------------------------------------

e------0-0---------3-3----------7---14-14----------5---12-12-11
B----------3-1-0-----------------------------------------------
G--2-----------------------------------------------------------
D--------------------------------------------------------------
A--------------------------------------------------------------
E--------------------------------------------------------------

e------2-2-0-------5-5----------4-0-------2------------
B--0---------3-2--------------------2-0---------------0
G-------------------------------------------2-------2--
D-------------------------------------------------4----
A------------------------------------------------------
E------------------------------------------------------
Login or Register to remove this ad.

54 comments on To Zanarkand

GOOOOOOOOOOOOOD

GOOOOOOOOOOOOOD

Archard, you are my favorite

Archard, you are my favorite tabber.

i dont get that one i play

i dont get that one i play piano and it sounds sorta like it but in the first line or 2 there are 2 mistakes. and u switched the octaves. its good though besides that.

dam i always to play this...

dam i always to play this... knoe i can.

Awesome, a tab I can

Awesome, a tab I can actually play. ^_^

e--0-------0-2-3------------

e--0-------0-2-3--------------------0-2
B--------0----------------3-------3----
G------0------------------------2------
D----2----------------------0-3--------
A--------------------------------------
E--------------------------------------

e--7-7-7-7-5---10-3----------0-0-0-0-----3--
B------------------------------------3-----1
G-------------------------------------------
D-------------------------------------------
A-------------------------------------------
E-------------------------------------------

is the most beautiful bit!

Intro e--0-------0-2-3------

Intro


e--0-------0-2-3--------------------0-2
B--------0----------------3-------3----
G------0------------------------2------
D----2----------------------0-4--------
A--------------------------------------
E--------------------------------------

If you ask me. The Intro would sound better like this.

@pianodude: yes, it has to

@pianodude: yes, it has to be like this:
e--0-----0-2-3-2-0-----0--------------0-----0-2-3-2-3-5-3-5-7
B------0-----------3-----3---0------------0------------------
G--------------------------2---------------------------------
D--------------------------^---------------------------------
A--------------------------|---------------------------------
E------------------------------------------------------------

e--0-----0-2-3-2-0-----0-----

e--0-----0-2-3-2-0-----0-------
B------0-----------3-----3---0-
G--------------------------2--- --> with this note here
D------------------------------ is better i think.
A------------------------------
E------------------------------

great tab, btw. ^^''

edit: oh, now i saw socrates has put the note too.. XD
sry for double posting, then. =p

e--0-----0-2-3-2-0-----0----


e--0-----0-2-3-2-0-----0-------
B------0-----------3-----3-1-0- --> I think this bit is
G------------------------------ better
D------------------------------
A------------------------------
E------------------------------

ArmouredGuns I agree. Nice

ArmouredGuns I agree. Nice Tab By The Way! Pretty Easy To FOllow!

For The Second Line I Like

For The Second Line I Like This

e-------------------------------0-0-0-0----3-1----|
B---------------------------------------3---------|
G---4-4-4-4-2----7-0------------------------------|
D-------------------------------------------------|
A-------------------------------------------------|
E-------------------------------------------------|

thats messed.... whoops

thats messed....

whoops

I fixed it, don't forget

I fixed it, don't forget code tags.

ty!

ty!

That was so awesome! Thank

That was so awesome! Thank you so much. I can play it. And it sounds good!

Dude, you effin' rock. this

Dude, you effin' rock. this is the coolest tab ever and it pisses off my stepbro that i can play it and he can't lol.

e--7-7-7-7-5---10-----------

e--7-7-7-7-5---10------------0-0-0-0-----3--
B--5-5-5-5-5------8------------------3-----1
G-------------------------------------------
D-------------------------------------------
A-------------------------------------------
E-------------------------------------------

this is nice too.

i have to agree with you

but he is right too, the 8th fret on the second (in tune) is the same note as the 3rd fret on the first string, you are both right, but yours is a little easier then his

Awesome tab, i love playing

Awesome tab, i love playing it clean but i didn't know it could be so good distorted as well:) but overall awesome tab and thank you so much

Awesome tab! But you missed

Awesome tab! But you missed a note.

e--0-----0-2-3-2-0-----0--------------0-----0-2-3-2-3-5-3-5-0-7
B------0-----------3-----3-0--------------0--------------------
G--------------------------------------------------------------
D--------------------------------------------------------------
A--------------------------------------------------------------
E--------------------------------------------------------------

Sounds better now.

not really

See it sounds like they missed a note but if you slide your finger from ---5-7- thats is passing through the 6th one, you get the missing note and it sounds good. more to the point it is easier that way.

dam archard you are good.

dam archard you are good. this sounds great. but i have a questions how come some names are blue and the rest are grey?

It seems to me that the grey

It seems to me that the grey names represent people who are just using nicknames, like us, while the blue names (which are actually links) are registered users. If you register an account you'll get a blue name.

NICE *O* , thank you ~!! ^_^

NICE *O* , thank you ~!! ^_^

yeah it would be awsome if i

yeah it would be awsome if i could read music

This is such a beautiful

5

This is such a beautiful song :) Thanks for this and all of the tabs you've submitted... your work is greatly appreciated! :)

simply amazing. your work is

5

simply amazing. your work is outstanding.

Pure Awesome. I've been

5

Pure Awesome. I've been wanting to play this song since I first played FFX (Which wasn't as good as VII)

I love it! i just started

5

I love it! i just started with guitar a few months ago and love to play it and with this song which is easy to learn and fun to play I even love guitar more than before!
Thank you Archard!!!!

i'd have to agree with

i'd have to agree with armoredguns

fuckin awsome tab

5

fuckin awsome tab

Lovely. :)

5

Lovely. :)

dude it sounds good the way

5

dude it sounds good the way it is! ^^
no need to edit it
and doood its such a good song.. im learning it for my girlfriend ^^
it takes a while to learn by heart
but im working on it! ^^^^

Thank you!

Thank you!

that.................... is

5

that.................... is just amazing

Perfect once again archard!

5

Perfect once again archard!

awesome tab

5

awesome tab

one of my all time

5

one of my all time favourites :) thanks for this easy tab :D

Amazing

12.75

Awesome-- one of my most favorite songs to play. Great Job =D

Awesome, but!

5

Dude, AWESOME JOB BUUUUT I noticed that on the intro in the:

e--7-7-7-7-5---10-3----------

Using 2 instead of 3 sounds more like the song and sample (which are the same but w/e) like so:

e--7-7-7-7-5---10-2----------

when u play it alone it sounds OK with the 3, but when u play it with the song it sounds more like using a two, open the sample and try it uself and see what I mean!!!

ZOMG WTF

2

this is a good tab .../// if you've only been playing for about 2 weeks

It is DEFINATLY not a 5 star and that is FACT, no disrespect to Archard.

If you are a good serious guitar player, then i advise you to learn Stamen47's version as it is much better and more advanced.

definatly

a 2 star tab

if stamens47's is 5 star then this is 2-3 star

sweet

5

Really good for new players o.o

revised tab

i edited this tab to produce something i think sounds nicer and is more like the original, based on the piano score. I'm new to both piano and guitar, so the tab probably wont be great, but i'll just post it for those who might want it.

Intro

e--0-------0-2-3--------------------0-2
B--------0----------------3-------3----
G------0------------------------2------
D----2----------------------0-4--------
A--------------------------------------
E--------------------------------------

e----------------------------0-0-0-0-----3--
B--0-0-0-0-----3---------------------3-----1
G----------2--------------------------------
D-----------------4-------------------------
A-------------------------------------------
E-------------------------------------------

Main Theme

e--0-----0-2-3-2-0-----0--------------0-----0-2-3-2-3-5-3-5-7
B------0-----------3-----3-0--------------0------------------
G------------------------------------------------------------
D------------------------------------------------------------
A------------------------------------------------------------
E------------------------------------------------------------

e--0-----0-2-3-2-0-----0--------------------------------------------
B------0-----------3-----3-1-0------------0-0-0-0-----3-------------
G-------------------------------------0-2---------2------0---0------
D--------------------------------------------------------------4-0-2
A-------------------------------------------------------------------
E-------------------------------------------------------------------

e-----------0-----------0--3--5----12-12-10-8-7--15-15---7-14-14
B--------1-----------1-----------------------------------------
G-----0-----------0--------------------------------------------
D--2-----------2-----------------------------------------------
A--------------------------------------------------------------
E--------------------------------------------------------------

e--5—12-12-11------2-2-0------5-5---4-0------2------------------
B----------------0-------3-2------------2-0----------0----------
G----------------------------------------------2---2------------
D------------------------------------------------4--------------
A---------------------------------------------------------------
E---------------------------------------------------------------

i think the spacing might be messed up due to differences in line length due to this script, but using lucinda console on microsoft word, it should go back to normal.

Here, this intro sounds much

Here, this intro sounds much better then the one's already up.

e--0-------0-2-3--------------------0-2
B--------0----------------3-------3----
G------0------------------------2------
D----2----------------------0-4-------0
A--------------3-----------------------
E--------------------------------------

This song is screaming for a lot of Finger Picking and more variation. I'm going to tab a much better version of this for you guy's soon along with "A Place to Call Home/That Place I'll Return to Someday" from FF9.

ummm .......... good tab

5

Intro

e--0-------0-2-3--------------------0-2
B--------0----------------3-------3----
G------0------------------------2------
D----2----------------------0-3--------
A--------------------------------------
E--------------------------------------

e--7-7-7-7-5---10-3----------0-0-0-0-----3--
B------------------------------------3-----1
G-------------------------------------------
D-------------------------------------------
A-------------------------------------------
E-------------------------------------------

Intro fix it

e||-----------------------------------0-2-|
B||--5-------5-7-8----------3-------3-----|
G||--------4----------------------2-------|
D||------5----------------------3---------|
A||----7----------------------5-----------|
E||---------------------------------------|

e|--7-7-7-7-5---10------------------------3---|
B|-----------------8----------5-5-5-5-3-------|
G|------------------------------------------5-|
D|--------------------------------------------|
A|--------------------------------------------|
E|--------------------------------------------|

I find it easier this way....ñ_ñ

Best tabber on Gametabs

Archard, I find you're tabs the best on here. I have been playing this one for a couple of weeks now and have tried all the variations that these guys have put on. Bassically, they suck and you rock. There were minor things like adding the 4 in the intro that I liked but.. other then that nothing.

In what way does stamen's

In what way does stamen's version suck?

I just wish I had the version

I just wish I had the version with more notes. Blitzwater.

I'm 12 and this is the best

I'm 12 and this is the best tab ever.

Next year, we can call you

Next year, we can call you Bakers.

This is the best song EVER!!

This is the best song to play in times when i'm lonely thx man!!

It's easy and great!!! but...

4

It would be better if it had more notes...
Like this-

Intro:

E|-0-------------0--2--3-----------------------0--2---
B|------------0---------------3-------------3------------
G|---------0-----------------------------2---------------
D|------2--------------------------0--4----------------
A|-------------------------------------------------------
E|-------------------------------------------------------

E|-7--7--7--7--5----10--3------0--0--0--0-----3-----
B|--------------------------------------------------3-----1
G|----------------------------------------------------------
D|----------------------------------------------------------
A|----------------------------------------------------------
E|----------------------------------------------------------

Main:

E|-0-------0--2--3--2--0-------0---------------0---------0--2--3--2--3--5----3--5--7
B|------0----------------------3-------3-----0-----------0--------------------3-----------5
G|------------------------------2-------------0-----------------------------------------------
D|---------------------------------------------------------------------------------------------
A|-2-------------------------------------------------------------------------------------------
E|-0------------------------------------------------0-----------------------------------------

E|-0-------0--2--3--2--0------0---------------------------------------------------------------------0-
B|------0----------------------3------3--1--0------------0--0--0--0------3------------------------0-
G|------------------------------2-------------0------0--2---------------2---------0----0------------0-
D|---------------------------------------------2-------------------------------------------------4--0--2-
A|-2-----------------------------------------------------------------------------------------------------2-
E|-0-----------------------------------------------------------------------------------------------------0-

What do you think? Has it been improved?
(didn't include the last two bars)