Ads

Won't Stop 'Till the End!! (Dragon Ball Z: Budokai 3) Guitar Tab

Submitted: Nov 11, 2008 by hslesperance (Last updated: May 07, 2011)

4.875
Average: 4.9 (8 votes)
Download | Listen
Game: Dragon Ball Z: Budokai 3
Composer(s): Kenji Yamamoto (DBZ)
Style: Transcription
Series: Dragon Ball

AutoScroll: Slow | Medium | Fast
Dragon Ball Z: Budokai 3
Opening Theme
Composed by Hironobu Kageyama
Tabbed by hslesperance
11/11/08

Standard Tuning

e---12--12--12--12b14r------------12--14--14b16r--12--11--------
B-----------------------12~~--14-------------------------14-----
G---------------------------------------------------------------
D---------------------------------------------------------------
A---------------------------------------------------------------
E---------------------------------------------------------------

e-----------12-12-----------12--12-14--16-14-16-14--------------
B---14--12-----------12/14--------------------------------------
G---------------------------------------------------------------
D---------------------------------------------------------------
A---------------------------------------------------------------
E---------------------------------------------------------------

e---12--12-12--12--12b14r------------12--14--16--19-16----------
B--------------------------12----14---------------------19------
G---------------------------------------------------------------
D---------------------------------------------------------------
A---------------------------------------------------------------
E---------------------------------------------------------------

e--------------------16b17r-------------------------------------
B---17-17--------17----------17--19-17--------------------------
G---------------------------------------------------------------
D---------------------------------------------------------------
A---------------------------------------------------------------
E---------------------------------------------------------------

e---------------------------------------------------------------
B----------10--12-------10h12--10----------10-------------------
G---9--12---------9--9--------------12-12-----9-----------------
D---------------------------------------------------------------
A---------------------------------------------------------------
E---------------------------------------------------------------

e---------------------------10--------------11b12---------------
B----------10--12-------12------10-----------------12--10-------
G---9--12---------9--9-------------12--9------------------12----
D---------------------------------------------------------------
A---------------------------------------------------------------
E---------------------------------------------------------------

e--------------10---9-------------------------------------------
B---10-12--12-----------12---------------10--12-------10h12--10-
G---------------------------------9--12---------9--9------------
D---------------------------------------------------------------
A---------------------------------------------------------------
E---------------------------------------------------------------

e----------------------------8----------------------------------
B------10--------10-12-12-12----12--10------10-----10------11b12
G---12----12--9-------------------------12------12-----12-------
D---------------------------------------------------------------
A---------------------------------------------------------------
E---------------------------------------------------------------

e--------------------------------------------10--12--11--12--15-
B---12-10-----12--------12-12-12-13--12--13---------------------
G---------12----------------------------------------------------
D---------------------------------------------------------------
A---------------------------------------------------------------
E---------------------------------------------------------------

e---14-14-14-14--12-11-------12---12---12--12b14r---------------
B--------------------------------------------------12----12/14--
G---------------------------------------------------------------
D---------------------------------------------------------------
A---------------------------------------------------------------
E---------------------------------------------------------------

e---12--14--14b16--14-12--11----------------12-12-----------12--
B----------------------------14----14--12-----------12/14-------
G---------------------------------------------------------------
D---------------------------------------------------------------
A---------------------------------------------------------------
E---------------------------------------------------------------

e---12--14--16-14-16-14--------12--12-12--12--12b14r------------
B-----------------------------------------------------12----14--
G---------------------------------------------------------------
D---------------------------------------------------------------
A---------------------------------------------------------------
E---------------------------------------------------------------

e---12--14--16--19-16-----------------------16b17--16-----------
B----------------------19--17-17--------17-------------17--19-17
G---------------------------------------------------------------
D---------------------------------------------------------------
A---------------------------------------------------------------
E---------------------------------------------------------------

e---14b15--14-12------------------------------------------------
B---------------------------------------------------------------
G---------------------------------------------------------------
D---------------------------------------------------------------
A---------------------------------------------------------------
E---------------------------------------------------------------

e-10/12--12-10------------12------------------------------------
B---------------12--11-12----15-12------------------------------
G----------------------------------14-12------------------------
D----------------------------------------14-12------------------
A----------------------------------------------14-13-12---------
E-------------------------------------------------------15-12-12




Guitar 2


0:14
e---------------------------------------------------------------
B---------------------------------------------------------------
G---9--------8--------------------------------------------------
D---9--------9--------11--------9--------7--------9-------------
A---7--------7--------11--------9--------7--------9-------------
E---------------------9---------7--------5--------7-------------

e---------------------------------------------------------------
B---------------------------------------------------------------
G---------------------------------------------------------------
D----------------------------------------------------7----5-----
A---7------7--------------------7--------7------7----7----5-----
E-------10------------10---9-10--------------10------5----3-----

e---------------------------------------------------------------
B---------------------------------------------------------------
G---------------------------------------------------------------
D---------------------------------7---5---7---8----7--5---------
A---7------7--------------------7-7---5---7---8----7--5---------
E-------10------------10---9-10---5---3---5---6----5--3---------

e---------------------------------------------------------------
B---------------------------------------------------------------
G------------7----5--------------------------7----5-------------
D---2--------7----5----2------------2--------7----5----2--------
A---2--------5----3----2--------5-7-2--------5----3----2--------
E---0------------------0----5-7-----0------------------0--------

e---------------------------------------------------------------
B---------------------------------------------------------------
G---------------------------------------------7----5------------
D---2--------5----7----2--------5----2--------7----5----2-------
A---2--------5----7----2----------7--2--------5----3----2-------
E---0--------3----5----0----5-7------0------------------0-------

e---------------------------------------------------------------
B---------------------------------------------------------------
G---5--------7--------5------------6-6-6-6--6-4-----------------
D---5--------7--------5-----------------------------------------
A---3--------5--------3-----------------------------------------
E---------------------------------------------------------------

e---------------------------------------------------------------
B---------------------------------------------------------------
G---9--------8--------------------------------------------------
D---9--------9--------11--------9--------7--------6-------------
A---7--------7--------11--------9--------7--------6-------------
E---------------------9---------7--------5--------4-------------

e---------------------------------------------------------------
B---------------------------------------------------------------
G---------------------------------1-2---------------------------
D---------------------------1-2-4-----4-------------------------
A--------1----4----1----2-4-------------------------------------
E---2-----------------------------------------------------------

e---------------------------------------------------------------
B---------------------------------------------------------------
G---9--------8--------------------------------------------------
D---9--------9--------11--------9--------7--------9-------------
A---7--------7--------11--------9--------7--------9-------------
E---------------------9---------7--------5--------7-------------

e---------------------------------------------------------------
B---------------------------------------------------------------
G-----------------------7/9-9--7-7/9--7/9-9--7/9-9--------------
D---10--------12--------7/9-9--7-7/9--7/9-9--7/9-9--------------
A---10--------12--------5/7-7--5-5/7--5/7-7--5/7-7--------------
E---8---------10------------------------------------------------

e---------------------------------------------------------------
B---------------------------------------------------------------
G---7/9-9--7-7/9--7/9-9--7/9-9----------------------------------
D---7/9-9--7-7/9--7/9-9--7/9-9----------------------------------
A---5/7-7--5-5/7--5/7-7--5/7-7----------------------------------
E---------------------------------------------------------------

b - bend
r - release
h - hammer on
/ - slide up
Login or Register to remove this ad.

6 comments on Won't Stop 'Till the End!!

OMG

5

Dude that is awesome =D

I just got past the intro and nearly halfway through the rest and it sounds great.
xD

Thanx for the tab its cool,

Thanx for the tab its cool, it took me a couple of hours to perfect,but there is also a solo to this tune that i want

Thanks for the tabs it's only

Thanks for the tabs it's only the ultimate video game guitar song! <3

Great tab!

4

This is tabbed to almost perfection, thank you for this!

Hum, some questions here..How

5

Hum, some questions here..How do i do the 12b14r thing? And the 16b17?
Do you the string a lot or a little?
Great job for the tabs by the way! ;)

12b14r means you hit the 12th

12b14r means you hit the 12th fret and bend up to the pitch of the 14th fret, then r means release back down to the regular pitch of that 12th fret. And the 16b17 is also a bend up from the 16th fret to the pitch of 17, but there is no r so you don't go back down to 16.

Do you (bend) the string a lot or a little? It depends on what string, the lower strings you have to bend further to raise the pitch. It also depends on what fret you are on.