Ads

Divine Beast Cave (Dark Cloud) Guitar Tab

Submitted: Jan 31, 2009 by JBryant

3
Average: 3 (2 votes)
Download | Listen
Game: Dark Cloud
Composer(s): Tomohito Nishiura
Style: Arrangement

AutoScroll: Slow | Medium | Fast
Divine Beast Cave
Dark Cloud
Tabbed by: Jbryant
1/30/09


4/4 Time
Medium-Slow Tempo
(The 3s mean tripelet 8ths)


Nylon Guitar  
   Q.     3 3 3  Q.     E     Q.      E  H
|-------------0--0---------|--------------------------|
|---------1-3-----------3--|--------------------------|
|--2-----------------------|--2-------1--0------------|
|--2-----------------------|--2-----------------------|
|--0-----------------------|--0-----------------------|
|--------------------------|--------------------------|

   Q.     3 3 3  Q.     E     Q.      E  Q.        E
|-------------0--0---------|--------------------------|
|---------1-3-----------3--|--------------------------|
|--2-----------------------|--2-------1--0---------3--|
|--2-----------------------|--2-----------------------|
|--0-----------------------|--0-----------------------|
|--------------------------|--------------------------|

   Q.     3 3 3  Q .  S S     Q.      S S H
|--1------0-1-3--3----1-0--|--1-----------------------|
|--3-----------------------|--3-------3-2-3-----------|
|--2-----------------------|--2-----------------------|
|--0-----------------------|--0-----------------------|
|--------------------------|--------------------------|
|--------------------------|--------------------------|

   Q.       E  Q    E  E      H           Q     Q
|--5-----------6-----------|--------------------------|
|--6--------8----------6---|--5-----------2-----3-----|
|--7----------------7------|--0-----------0-----0-----|
|--7-----------------------|--2-----------2-----2-----|
|--5-----------------------|--0-----------0-----0-----|
|--------------------------|--------------------------|

Next, just arpeggiate randomly on these chords 
|--0-----------------------|--------------------------|
|--3-----------------------|--3-----------------------|
|--2-----------------------|--3-----------------------|
|--2-----------------------|--3-----------------------|
|--3-----------------------|--1-----------------------|
|--0-----------------------|--------------------------|

|--0-----------------------|--3-----------------------|
|--3-----------------------|--3-----------------------|
|--2-----------------------|--4-----------------------|
|--2-----------------------|--5-----------------------|
|--3-----------------------|--5-----------------------|
|--0-----------------------|--3-----------------------|

|--0-----------------------|--------------------------|
|--3-----------------------|--3-----------------------|
|--2-----------------------|--3-----------------------|
|--2-----------------------|--3-----------------------|
|--3-----------------------|--1-----------------------|
|--0-----------------------|--------------------------|

|--0-----------------------|-------------0------------|
|--3-----------------------|--3----------1------------|
|--2-----------------------|--3----------2------------|
|--2-----------------------|--3----------2------------|
|--3-----------------------|--1----------0------------|
|--0-----------------------|--------------------------|



Repeat that to infinity



Login or Register to remove this ad.