Ads

Corridor of Time (Dark Cloud) Guitar Tab

Submitted: Jan 31, 2009 by JBryant

4.5
Average: 4.5 (2 votes)
Download | Listen
Game: Dark Cloud
Composer(s): Tomohito Nishiura
Style: Transcription

AutoScroll: Slow | Medium | Fast
Corridor of Time
Dark Cloud
Tabbed by: Jbryant
1/30/09


4/4 Time
Medium Fast


   H         Q.     S   S     H.                S  S
|----------- 9------11--9--|--------------------------|
|--------------------------|--12---------------10--9--|
|--11----------------------|--------------------------|
|--------------------------|--------------------------|
|--------------------------|--------------------------|
|--------------------------|--------------------------|
   
   H          H               S  E.    H
|--------------------------|--------------------------|
|--10---------12-----------|--9-----------------------|
|--------------------------|-----11---(11)------------|
|--------------------------|--------------------------|
|--------------------------|--------------------------|
|--------------------------|--------------------------|

   H         Q.     S   S     H.                S  S
|----------- 9------11--9--|--------------------------|
|--------------------------|--12---------------10--9--|
|--11----------------------|--------------------------|
|--------------------------|--------------------------|
|--------------------------|--------------------------|
|--------------------------|--------------------------|

   H          H               S  E.    H
|--------------------------|--------------------------|
|--10---------12-----------|--9-----------------------|
|--------------------------|-----11---(11)------------|
|--------------------------|--------------------------|
|--------------------------|--------------------------|
|--------------------------|--------------------------|

   W                          W
|--------------------------|--------------------------|
|--10----------------------|--10----------------------|
|--------------------------|--------------------------|
|--------------------------|--------------------------|
|--------------------------|--------------------------|
|--------------------------|--------------------------|

   W                          W
|--------------------------|--------------------------|
|--9-----------------------|--9-----------------------|
|--------------------------|--------------------------|
|--------------------------|--------------------------|
|--------------------------|--------------------------|
|--------------------------|--------------------------|

   W                          W
|--------------------------|--------------------------|
|--10----------------------|--10----------------------|
|--------------------------|--------------------------|
|--------------------------|--------------------------|
|--------------------------|--------------------------|
|--------------------------|--------------------------|

   W                          W
|--------------------------|--------------------------|
|--9-----------------------|--9-----------------------|
|--------------------------|--------------------------|
|--------------------------|--------------------------|
|--------------------------|--------------------------|
|--------------------------|--------------------------|

   H           H              H.                  Q
|--------------------------|----------------------14--|
|--------------12----------|--14----------------------|
|--11----------------------|--------------------------|
|--------------------------|--------------------------|
|--------------------------|--------------------------|
|--------------------------|--------------------------|

   H.                  Q      W
|--12------------------11--|--------------------------|
|--------------------------|--14----------------------|
|--------------------------|--------------------------|
|--------------------------|--------------------------|
|--------------------------|--------------------------|
|--------------------------|--------------------------|

   H           H              H.         Q       Q
|--------------------------|--------------------------|
|--------------12----------|--14---------12-----11----|
|--11----------------------|--------------------------|
|--------------------------|--------------------------|
|--------------------------|--------------------------|
|--------------------------|--------------------------|

   Q     Q      H             W 
|--------------------------|--------------------------|
|---------------R----------|--R-----------------------|
|--13----11-----E----------|--E-----------------------|
|---------------S----------|--S-----------------------|
|---------------T----------|--T-----------------------|
|--------------------------|--------------------------|

as always, repeat to infinity


Login or Register to remove this ad.