Login or Register to remove this ad.

Broken Promise (Dark Cloud) Guitar Tab

Submitted: Oct 03, 2007 by Kabukibear (Last updated: Sep 20, 2009)

4.75
Average: 4.8 (16 votes)
Download | Listen
Game: Dark Cloud
Composer(s): Tomohito Nishiura
Style: Arrangement, Fingerstyle

AutoScroll: Slow | Medium | Fast
Broken Promise (Orgel Version)                          
~Dark Cloud~
Composed by: Tomohito Nishiura
Arranged by: Justin Lincoln


     H.           E  E       Q    Q    Q    E  E     Q    Q    Q    Q     
E||---------------------||------------------------|----------------------|
B||------------------0--||---1---------1----1--3--|--0---------0---------|
G||---------------2-----||*-----------------------|-----------------0----|
D||---------------------||*-------2---------------|-------0--------------|
A||---------------------||---0--------------------|----------------------|
E||---------------------||------------------------|--3-------------------|


  Q    Q    Q    Q       Q    Q    Q    E  E     Q    Q    Q    E  E   
----------------------|-----------------------|-----------------------|
------------1----0----|-------1----0-------0--|--1---------1----1--3--|
--2-------------------|--0--------------2-----|-----------------------|
-------2--------------|-----------------------|-------2---------------|
--0-------------------|-----------------------|--0--------------------|
----------------------|-----------------------|-----------------------|


  Q    Q    Q    Q       Q    Q    Q    Q       Q    Q    Q    E  E   
----------------------|--0-------------------|--L-----------------0--|
--0---------0---------|------------0----1----|--0--------------3-----|
-----------------0----|-------0--------------|-------2---------------|
-------0--------------|----------------------|------------2----0-----|
----------------------|--3-------------------|-----------------------|
--3-------------------|----------------------|-----------------------|


  Q    Q    Q    Q       Q    Q    Q    Q       Q    Q    Q    Q     
--1-------------------|--4----1----0---------|--0-------------------|
-----------------3----|-----------------3----|------------0---------|
----------------------|------------1---------|-----------------2----|
-------0----3---------|-------0--------------|-------2--------------|
--1-------------------|--2-------------------|--0-------------------|
----------------------|----------------------|----------------------|


  Q    Q    Q    E  E     Q    Q    Q    Q       Q    Q    Q    Q     
--L--------------------|----------------------|----------------------|
------------0----1--0--|--1---------1----3----|--0---------0---------|
-----------------2-----|----------------------|------------1----1----|
-------2---------------|----------------------|-------0--------------|
-----------------------|-------3--------------|----------------------|
--3--------------------|--1-------------------|--0-------------------|

1st ending------------------------------------,    2nd Ending---------
  Q    Q    Q    Q       Q    Q    Q    E  E       Q    Q    Q    Q     
----------------------|------------------------||----------------------|
------------0----1----|--------------------0---||------------0----3----|
--2-------------------|--2--------------2-----*||--2-------------------|
-------2--------------|-------2---------------*||-------2--------------|
----------------------|------------3----0------||----------------------|
----------------------|------------------------||----------------------|


  ^                  
  W                  
-------------------||
--2----------------||
--2----------------||
-------------------||
--0----------------||
-------------------||




Duration Legend
---------------
W - whole
H - half
Q - quarter
E - 8th
S - 16th
T - 32nd
X - 64th
. - note dotted
|-n-|  - n-tuplets


Tablature Legend
----------------
L - tied note
^ - brush up
1st ending/2nd ending - Place 1st ending and on 
repeat jump 1st ending and play 2nd ending to end.
Login or Register to remove this ad.

10 comments on Broken Promise

with a capo on the 4th frets

with a capo on the 4th frets , its awsome!!!

Can someone remind me what

Can someone remind me what part of the game is this? is this with the "genie" lady (sigh havent played the game in forever) and her telling her story with the locket and the dude out at sea or something?

Song

This song is heard twice, once at the beginning, the other when you are at Queens. No, not with the genie, but with the girl Saia, her and the guy were in love (long story) and she killed herself because she went crazy waiting for him at the church, anyways this song plays when you open the music box right before the boss, and after you defeat the boss.
:D
Oh btw, GREAT SONG!

does anyone no of any other

does anyone no of any other sites that have game tabs?! dont get me wrong iv googled game tabs a dozen times and this is by far the best site but i new MORE gametabs.....anyone no anymore sites?

Whats this?...a TAB by

Whats this?...a TAB by Kabukibear that i can play =O lol. Nice tab man i completely forgot about this game.

LOL, yeah I'll throw you all

LOL, yeah I'll throw you all a bone from time to time. Back when I had my own site I had a whole section dedicated to Easy tabs. I just haven't uploaded many because I didn't think there was much of a call for them.

?

you had your own site?

OMFG I LOVE THIS SONG...I

OMFG I LOVE THIS SONG...I learned how to play it on the piano cuz i thought they didn't have it for guitar so THANK YOU MAN THANK YOU THANK YOU THANK YOU THANK YOU THANK YOU THANK YOU THANK YOU THANK YOU THANK YOU THANK YOU THANK YOU THANK YOU THANK YOU THANK YOU THANK YOU THANK YOU THANK YOU THANK YOU THANK YOU THANK YOU THANK YOU THANK YOU THANK YOU THANK YOU THANK YOU.

wow, thanks, i´ve always

wow, thanks, i´ve always wanted to play this song

Oh that was excellent, this

5

Oh that was excellent, this site has the best game tabs ever, I was so joyed to find this game on hear and this song. ThankYouThankYouThankYouThankYouThankyouThankyou