Ads

Zen Garden (Plants vs Zombies) Guitar Tab

Submitted: Jun 09, 2009 by auriplane (Last updated: Feb 04, 2010)

5
Average: 5 (3 votes)
Download | Listen
Game: Plants vs Zombies
Composer(s): Laura Shigihara
Style: Arrangement, Fingerstyle

AutoScroll: Slow | Medium | Fast
                Plants vs Zombies - Zen Garden GUITAR TAB
                        Song by Laura Shigihara

            Arranged & tabbed by auriplane ([email protected])
                            On June 9, 2009


Drop-D tuning, capo on 3.

e |5-------0-------|----------------|5-------0-------|----------------|
B |----------------|3-------2-------|----2-------0---|3-------2-------|
G |----2---1-------|--------2-------|----2---1-------|--------2-------|
D |--2---0-----2---|----2-----------|--2---0-----2---|----2-----------|
A |0---------4---0-|2-----4---------|0---------4---0-|2-----4---------|
D |----------------|--2-------------|----------------|--2-------------|
   
e |----------------|----------------|----------------|----------------|
B |----------------|----------------|----2---0-------|------2---0-3-2-|
G |----2---1-------|------2---1-----|----2---1---1---|----------------| x2
D |--2---------2---|----------------|--2---------2---|----------------|
A |0---------------|------------2h4-|0---------------|----------------|
D |----------------|----------------|----------------|----------------|

   v                    v   v   v    v                                   
e |----------------|----------------|----------------|----------------|
B |2---------------|----0---3---2---|2---2---0-------|------2---0-3-2-|
G |----2---1-------|------2---1-----|----2---1---1---|----------------|
D |--2---------2---|----------------|--2---------2---|----------------|
A |0---------------|------------2h4-|0---------------|----------------|
D |----------------|----------------|----------------|----------------|
                                   
   v                    v   v   v    v                                   
e |----------------|------------0---|----------------|----------------|
B |2---------------|----0---3-------|2---2---0-------|------2---0-3-2-|
G |----2---1-------|------2---1-----|----2---1---1---|----------------|
D |--2---------2---|----------------|--2---------2---|----------------|
A |0---------------|------------2h4-|0---------------|----------------|
D |----------------|----------------|----------------|----------------|

e |5---------------|4---------------|2---------------|----------------|
B |----------------|--------5-------|----------------|----------------|
G |----------------|----------------|----2-1---------|----------------|
D |7---6-7---------|6---2-6---------|4---------2-----|0---4-----------|
A |--4-------------|--2-------------|--5-----------4-|--0-------------|
D |4---------------|2---------------|0---------------|----------------|

e |9---------------|7-------4-------|
B |----------------|----------------|
G |----------------|----------------|
D |7---6-7---------|6---2-6---------|
A |--4-------------|--2-------------|
D |4---------------|2---------------|

e |5-------0-------|----------------|5-------0-------|----------------|
B |----------------|3-------2-------|----2-------0---|3-------2-------|
G |2---2---1-------|--------2-------|----2---1-------|--------2-------|
D |--2---0-----2---|----2-----------|--2---0-----2---|----2-----------|
A |0---------4---0-|2-----4---------|0---------4---0-|2-----4---------|
D |----------------|--2-------------|----------------|--2-------------|
   
    Repeat back to the beginning.  Or, play this chord, to end it:

e |----------------|
B |2---------------|
G |2---------------|
D |2---------------|
A |0---------------|
D |----------------|
   
Login or Register to remove this ad.