Ads

Deployment - New Conglomerate (PlanetSide 2) Bass/Guitar Tab

Submitted: Nov 19, 2013 by Jacob31593 (Last updated: Nov 19, 2013)

0
Download | Listen
Game: PlanetSide 2
Composer(s): Don Ferrone
Style: 2 or more instruments, Transcription

AutoScroll: Slow | Medium | Fast

Deployment NC from Planetside 2
Composed by Don Ferrone
Tabbed by Jacob31593
November 19th 2013

Live free in the NC

165BPM

Lead

E||--------|-------|-------|-------|-------|-------|-------|-------|-------|-------|-------|-------|-------|
B||--------|-------|-------|-------|-------|-------|-------|-------|-------|-------|-------|-------|-------|
G||*-------|-------|-------|-------|-------|-------|-------|-------|-------|-------|-------|-------|-------|
D||*-------|-------|-------|-------|-------|-------|-------|-------|-------|-------|-------|-------|-------|
A||--------|-------|-------|-------|-------|-------|-------|-------|-------|-------|-------|-------|-------|
E||--------|-------|-------|-------|-------|-------|-------|-------|-------|-------|-------|-------|-------|


  S  S  H        E    E   E     E.  E.  Q.      Q       H        H           Q    Q    Q      Q     
-----------------------------|-----------------------|--------------------|------------------------|
-----------------------------|-----------------------|--------------------|------------------------|
--------9--------L-----------|-----------------------|--------------------|------------------------|
--7h-9--L--------L--5g7p--5--|--7---5----------------|--------------------|-----------------5g7----|
-----------------------------|----------7~------L----|--L-----------------|------------------------|
-----------------------------|-----------------------|--------------------|------------------------|


  Q      S S S S E  E  E  E     E  E  H.               Q    H        Q                                     
-----------------------------|----------------------|---------------------|-------|-------|-------|-------|
-----------------------------|----------------------|---------------------|-------|-------|-------|-------|
-----------------------------|----------------------|---------------------|-------|-------|-------|-------|
--9----7g9-7-5---7--5--------|--5-------------------|---------------------|-------|-------|-------|-------|
-----------------------5--7--|-----5--7~------------|--L------------------|-------|-------|-------|-------|
-----------------------------|----------------------|---------------------|-------|-------|-------|-------|


                                          E   H         E  E  E      W                                  
-------|-------|-------|-------|-------|--------------------------|--------------------|-------|-------|
-------|-------|-------|-------|-------|--------------------------|--------------------|-------|-------|
-------|-------|-------|-------|-------|--7s--9~-----------7------|--------------------|-------|-------|
-------|-------|-------|-------|-------|----------------------7h--|--9~----------------|-------|-------|
-------|-------|-------|-------|-------|--------------------------|--------------------|-------|-------|
-------|-------|-------|-------|-------|--------------------------|--------------------|-------|-------|


  Q    Q.       E  E    E     E   E  H.               H        H                                         4x
---------------------------|-----------------------|--------------------|-------|-------|-------|--------||
---------------------------|-----------------------|--------------------|-------|-------|-------|--------||
---------------------------|-----------------------|--------------------|-------|-------|-------|-------*||
-------7b------------------|-----------------------|--------------------|-------|-------|-------|-------*||
---------------10--7h--10--|--5h--7--7~------------|--L-----------------|-------|-------|-------|--------||
---------------------------|-----------------------|--------------------|-------|-------|-------|--------||



Acoustic
                                                                                      ^     
              Q      E  E  Q    E  E     Q    H        Q               Q    Q    Q    Q     
D||--------|--------------------------|---------------------|-------|----------------------|
A||--------|--------------------------|---------------------|-------|-----------------5----|
F||*-------|-----------------------2--|--L------------------|-------|-----------------4----|
C||*-------|------------2--4----2--L--|--L----4--------L----|-------|----------------------|
G||--------|-------0g4----------------|---------------------|-------|----------------------|
D||--------|--------------------------|---------------------|-------|----------------------|


  W                           Q    Q    E   E    E  E       H.           Q       W                         
-------------------|-------|---------------------------|----------------------|-------------------|-------|
--L----------------|-------|---------------------------|----------------------|-------------------|-------|
--L----------------|-------|---------------------------|----------------------|-------------------|-------|
-------------------|-------|------------2s--1--2g1-----|--2g4-----------------|-------------------|-------|
-------------------|-------|---------------------------|-----------------4----|--L----------------|-------|
-------------------|-------|---------------------------|----------------------|-------------------|-------|


  Q      E  E  E  E    Q       W                           Q    Q    Q    E  E     H.             Q     
----------------------------|-------------------|-------|-----------------------|----------------------|
----------------------------|-------------------|-------|-----------------------|----------------------|
----------------------------|-------------------|-------|-----------------------|--2-------------------|
---------------2--4---------|-------------------|-------|-----------------2--4--|--2------------5g4----|
-------0g2--4---------------|-------------------|-------|-----------------0-----|--0-------------------|
---------------------2g5----|--2----------------|-------|-----------------------|----------------------|


   W                                   Q      E  E  E  E    Q       Q    Q    Q      Q     
--------------------|-------|-------|----------------------------|------------------------|
--------------------|-------|-------|----------------------------|------------------------|
--------------------|-------|-------|----------------------------|------------------------|
---L----------------|-------|-------|---------------2--4---------|------------------------|
--------------------|-------|-------|-------0g2--4---------------|------------------------|
--------------------|-------|-------|---------------------2g5----|--2---------2----2g5----|


  Q    Q    E  Q    E     Q    Q    Q      Q       Q    E  E  E  E    Q       Q    Q    Q      Q     
-----------------------|------------------------|--------------------------|------------------------|
-----------------------|------------------------|--------------------------|------------------------|
-----------------------|------------------------|--------------------------|------------------------|
-----------------------|------------------------|-------------2--4---------|------------------------|
------------2----------|-----------------0g2----|--L----0--2---------------|------------------------|
---------------5-------|--2---------2-----------|-------------------3g5----|--2---------2----3g5----|


  Q    Q    E  Q    E     Q    Q    Q    Q       Q    Q    E   E  Q               Q    E  E  E  E  E  E   
-----------------------|----------------------|------------------------|-------|-------------------------|
-----------------------|----------------------|------------------------|-------|-------------------------|
-----------------------|----------------------|------------------------|-------|----------------2--2-----|
-----------------------|----------------------|-------2----2h--4-------|-------|----------2--4--------2--|
------------2----------|----------------------|--4---------------------|-------|-------------------------|
---------------5-------|--2---------2----0----|------------------------|-------|-------------------------|


    Q    Q    Q    Q                       Q    E  E  E  E  E  E       Q    Q    Q    Q                     
------------------------|-------|-------|-------------------------|------------------------|-------|-------|
------------------------|-------|-------|-------------------------|------------------------|-------|-------|
------------------------|-------|-------|-------------------------|------------------------|-------|-------|
--2g4----4--------------|-------|-------|----------2--2--4--4--2--|--2g4----4--------------|-------|-------|
------------------------|-------|-------|-------------------------|------------------------|-------|-------|
------------------------|-------|-------|-------------------------|------------------------|-------|-------|


                        4x
-------|-------|--------||
-------|-------|--------||
-------|-------|-------*||
-------|-------|-------*||
-------|-------|--------||
-------|-------|--------||


Violin1

E||--------|-------|-------|-------|-------|-------|-------|-------|-------|-------|-------|-------|-------|
B||--------|-------|-------|-------|-------|-------|-------|-------|-------|-------|-------|-------|-------|
G||*-------|-------|-------|-------|-------|-------|-------|-------|-------|-------|-------|-------|-------|
D||*-------|-------|-------|-------|-------|-------|-------|-------|-------|-------|-------|-------|-------|
A||--------|-------|-------|-------|-------|-------|-------|-------|-------|-------|-------|-------|-------|
E||--------|-------|-------|-------|-------|-------|-------|-------|-------|-------|-------|-------|-------|


                                                          Q     H.              W                 
-------|-------|-------|-------|-------|-------|-------|---------------------|-------------------|
-------|-------|-------|-------|-------|-------|-------|---------------------|-------------------|
-------|-------|-------|-------|-------|-------|-------|--8s----9------------|--L----------------|
-------|-------|-------|-------|-------|-------|-------|---------------------|-------------------|
-------|-------|-------|-------|-------|-------|-------|---------------------|-------------------|
-------|-------|-------|-------|-------|-------|-------|---------------------|-------------------|


  W                   Q    E  E  E   E  E  E       W                   W                   W                 
-------------------|--------------------------|---------------------|-------------------|-------------------|
-------------------|----------------10--------|---------------------|-------------------|-------------------|
--L----------------|----------7--9------7--8--|--8g9----------------|--L----------------|--L----------------|
-------------------|--------------------------|---------------------|-------------------|-------------------|
-------------------|--------------------------|---------------------|-------------------|-------------------|
-------------------|--------------------------|---------------------|-------------------|-------------------|


  W                                                                                                 
-------------------|-------------------|-------------------|-------------------|-------------------|
-------------------|-------------------|-------------------|-------------------|-------------------|
--L----------------|-------------------|-------------------|-------------------|-------------------|
-------------------|-------------------|-------------------|-------------------|-------------------|
-------------------|-------------------|-------------------|-------------------|-------------------|
-------------------|-------------------|-------------------|-------------------|-------------------|


-------------------|-------------------|-------------------|-------------------|-------------------|
-------------------|-------------------|-------------------|-------------------|-------------------|
-------------------|-------------------|-------------------|-------------------|-------------------|
-------------------|-------------------|-------------------|-------------------|-------------------|
-------------------|-------------------|-------------------|-------------------|-------------------|
-------------------|-------------------|-------------------|-------------------|-------------------|


                                                            4x
-------------------|-------------------|--------------------||
-------------------|-------------------|--------------------||
-------------------|-------------------|-------------------*||
-------------------|-------------------|-------------------*||
-------------------|-------------------|--------------------||
-------------------|-------------------|--------------------||


Violin2

E||--------|-------|-------|-------|-------|-------|-------|-------|-------|-------|-------|-------|-------|
B||--------|-------|-------|-------|-------|-------|-------|-------|-------|-------|-------|-------|-------|
G||*-------|-------|-------|-------|-------|-------|-------|-------|-------|-------|-------|-------|-------|
D||*-------|-------|-------|-------|-------|-------|-------|-------|-------|-------|-------|-------|-------|
A||--------|-------|-------|-------|-------|-------|-------|-------|-------|-------|-------|-------|-------|
E||--------|-------|-------|-------|-------|-------|-------|-------|-------|-------|-------|-------|-------|


                                                           Q      H.              W                 
-------|-------|-------|-------|-------|-------|-------|-----------------------|-------------------|
-------|-------|-------|-------|-------|-------|-------|--16s----17------------|--L----------------|
-------|-------|-------|-------|-------|-------|-------|-----------------------|-------------------|
-------|-------|-------|-------|-------|-------|-------|-----------------------|-------------------|
-------|-------|-------|-------|-------|-------|-------|-----------------------|-------------------|
-------|-------|-------|-------|-------|-------|-------|-----------------------|-------------------|


  W                   Q    E   E   E   E   E   E         W                   W                 
-------------------|------------------17----------|-----------------------|-------------------|
--L----------------|----------15--17------15--16--|--16g17----------------|--L----------------|
-------------------|------------------------------|-----------------------|-------------------|
-------------------|------------------------------|-----------------------|-------------------|
-------------------|------------------------------|-----------------------|-------------------|
-------------------|------------------------------|-----------------------|-------------------|


  W                   W                                                                             
-------------------|-------------------|-------------------|-------------------|-------------------|
--L----------------|--L----------------|-------------------|-------------------|-------------------|
-------------------|-------------------|-------------------|-------------------|-------------------|
-------------------|-------------------|-------------------|-------------------|-------------------|
-------------------|-------------------|-------------------|-------------------|-------------------|
-------------------|-------------------|-------------------|-------------------|-------------------|


-------------------|-------------------|-------------------|-------------------|-------------------|
-------------------|-------------------|-------------------|-------------------|-------------------|
-------------------|-------------------|-------------------|-------------------|-------------------|
-------------------|-------------------|-------------------|-------------------|-------------------|
-------------------|-------------------|-------------------|-------------------|-------------------|
-------------------|-------------------|-------------------|-------------------|-------------------|


                                                                                4x
-------------------|-------------------|-------------------|--------------------||
-------------------|-------------------|-------------------|--------------------||
-------------------|-------------------|-------------------|-------------------*||
-------------------|-------------------|-------------------|-------------------*||
-------------------|-------------------|-------------------|--------------------||
-------------------|-------------------|-------------------|--------------------||


Rhythm

                                      PM    PM PM PM    PM             PM PM PM          
                                      E  E  E  E  E  E  E  E     E  E  E  E  E  E  Q     
D||--------|-------|-------|-------|--------------------------|-------------------------|
A||--------|-------|-------|-------|--------------------------|-------------------------|
F||*-------|-------|-------|-------|--------------------------|-------------------------|
C||*-------|-------|-------|-------|--------------------------|-------------------------|
G||--------|-------|-------|-------|--4-----4--4--4-----4-----|--------4--4--4-----4----|
C||--------|-------|-------|-------|--4-----4--4--4-----4-----|--------4--4--4-----4----|


  PM    PM PM PM    PM             PM PM PM            PM    PM PM PM    PM             PM PM PM          
  E  E  E  E  E  E  E  E     E  E  E  E  E  E  Q       E  E  E  E  E  E  E  E     E  E  E  E  E  E  Q     
--------------------------|-------------------------|--------------------------|-------------------------|
--------------------------|-------------------------|--------------------------|-------------------------|
--------------------------|-------------------------|--------------------------|-------------------------|
--2-----2--2--2-----2-----|--------2--2--2-----2----|--4-----4--4--4-----4-----|--------4--4--4-----4----|
--0-----0--0--0-----0-----|--------0--0--0-----0----|--2-----2--2--2-----2-----|--------2--2--2-----2----|
--------------------------|-------------------------|--------------------------|-------------------------|


  PM    PM PM PM    PM                                PM    PM PM PM PM PM       PM    PM PM PM          
  E  E  E  E  E  E  E  E     Q    E  E  E  E  Q       E  E  E  E  E  E  E  E     E  E  E  E  E  E  Q     
--------------------------|------------------------|--------------------------|-------------------------|
--------------------------|------------------------|--------------------------|-------------------------|
--------------------------|------------------------|--------------------------|-------------------------|
--6-----6--6--6-----6-----|-------------2--4-------|--------------------------|-------------------------|
--4-----4--4--4-----4-----|-------2--4--------0----|--4-----4--4--4--4--4-----|--4-----4--4--4-----4----|
--------------------------|------------------------|--4-----4--4--4--4--4-----|--4-----4--4--4-----4----|


  PM    PM PM PM PM PM       PM    PM PM                PM    PM    PM PM PM PM    PM    PM PM PM PM       
  E  E  E  E  E  E  E  E     E  E  E  E    Q    Q       E  E  E  E  E  E  E  E     E  E  E  E  E  E  Q     
--------------------------|--------------------------|--------------------------|-------------------------|
--------------------------|--------------------------|--------------------------|-------------------------|
--------------------------|--------------------------|--------------------------|-------------------------|
--2-----2--2--2--2--2-----|--2-----2--2--2g4----2----|--4-----4-----4--4--4--4--|--4-----4--4--4--4--4----|
--0-----0--0--0--0--0-----|--0-----0--0--0g2----0----|--2-----2-----2--2--2--2--|--2-----2--2--2--2--2----|
--------------------------|--------------------------|--------------------------|-------------------------|


  PM    PM PM PM PM PM PM                                                                                   
  E  E  E  E  E  E  E  E     Q    E  E  E  E  Q                                                             
--------------------------|------------------------|-------|-------|-------|-------|-------|-------|-------|
--------------------------|------------------------|-------|-------|-------|-------|-------|-------|-------|
--------------------------|------------------------|-------|-------|-------|-------|-------|-------|-------|
--6-----6--6--6--6--6--6--|--6----------2--4-------|-------|-------|-------|-------|-------|-------|-------|
--4-----4--4--4--4--4--4--|--4----2--4--------0----|-------|-------|-------|-------|-------|-------|-------|
--------------------------|------------------------|-------|-------|-------|-------|-------|-------|-------|


          Q    Q    Q    Q       Q    Q    Q    Q                       Q    Q    Q    Q     
-------|----------------------|----------------------|-------|-------|----------------------|
-------|----------------------|----------------------|-------|-------|----------------------|
-------|----------------------|----------------------|-------|-------|----------------------|
-------|----------------------|----------------------|-------|-------|----------------------|
-------|--4----4----2----4----|--L-------------------|-------|-------|--4----4----2----4----|
-------|--4----4----2----4----|--L-------------------|-------|-------|--4----4----2----4----|


  Q    Q    Q    Q                                                     4x
----------------------|-------|-------|-------|-------|-------|--------||
----------------------|-------|-------|-------|-------|-------|--------||
----------------------|-------|-------|-------|-------|-------|-------*||
----------------------|-------|-------|-------|-------|-------|-------*||
--L-------------------|-------|-------|-------|-------|-------|--------||
--L-------------------|-------|-------|-------|-------|-------|--------||


Bass

      Q    Q    Q    Q       H        Q    E   E     Q    Q    Q    Q       H        E  E  Q     
G||-----------------------|-----------------------|----------------------|----------------------|
D||*----------------------|-----------------------|----------------------|----------------------|
A||-----------------------|-----------------------|----------------------|-----------2----------|
E||*----------------------|----------------3s--5--|----------------------|--------------5--3----|
B||---5----5----3----5----|--L--------L-----------|--5----5----3----5----|--L-------------------|


  Q    E  E  Q    E  E     Q    E  E  Q    Q       Q    E  E  Q    E  E     Q    E  E  Q    Q     
------------------------|-----------------------|------------------------|-----------------------|
------------------------|-----------------------|------------------------|-----------------------|
------------------------|-----------------------|------------------------|-----------------------|
------------------------|-----------------------|--3----3--3--3----3--3--|--3----3--3--3----3----|
--5----5--5--5----5--5--|--5----5--5--5----5----|------------------------|-----------------------|


  Q    E  E  Q    E  E     Q    E  E  Q    Q       Q    E  E  Q    E  E     Q    E  E  E  E  Q     
------------------------|-----------------------|------------------------|------------------------|
------------------------|-----------------------|------------------------|----------------2-------|
------------------------|-----------------------|--2----2--2--2----2--2--|--2-------2--5----------|
--5----5--5--5----5--5--|--5----5--5--5----5----|------------------------|-------5-----------3----|
------------------------|-----------------------|------------------------|------------------------|


  Q    Q    Q    Q       Q    E  E  Q    Q       Q    E  E  Q    E  E     Q    E  E  Q    Q     
----------------------|-----------------------|------------------------|-----------------------|
----------------------|-----------------------|------------------------|-----------------------|
----------------------|-----------------------|------------------------|-----------------------|
----------------------|-----------------------|--3----3--3--3----3--3--|--3----3--3--3----3----|
--5----5----5----5----|--5----5--5--5----5----|------------------------|-----------------------|


  Q    Q    Q    E  E     Q    Q    Q    Q       Q    E  E  Q    E  E     E  E  E  E  E  E  Q     
-----------------------|----------------------|------------------------|-------------------------|
-----------------------|----------------------|------------------------|-----------------2-------|
-----------------------|----------------------|--2----2--2--2----2--2--|--2--2-----2--5----------|
--5----5----5----5--5--|--5----5----5----5----|------------------------|--------5-----------3----|
-----------------------|----------------------|------------------------|-------------------------|


  Q    Q    Q    Q       Q    Q    E  Q.        Q    Q    Q    Q       Q    E  E  E  E  Q     
----------------------|----------------------|----------------------|------------------------|
----------------------|----------------------|----------------------|----------------2-------|
----------------------|----------------------|----------------------|----------2--5----------|
-----------------3----|--3----3----5--3------|-----------------5----|--5----5-----------3----|
--5----5----5---------|----------------------|--5----5----5---------|------------------------|


  Q    Q    Q    Q       Q    Q    E  Q.        Q    Q    Q    Q       Q    E  E  E  E  Q     
----------------------|----------------------|----------------------|------------------------|
----------------------|----------------------|----------------------|------------------------|
----------------------|----------------------|----------------------|------------------------|
-----------------3----|--3----3----5--3------|----------------------|-------------3--5-------|
--5----5----5---------|----------------------|--5----5----5----3----|-------3-----------3----|


  Q    Q    Q    Q       Q    E  E  E  E  E  E     Q    Q    Q    Q               Q    Q    Q    Q     
----------------------|-------------------------|----------------------|-------|----------------------|
----------------------|-------------------------|----------------------|-------|----------------------|
----------------------|-------------------------|----------------------|-------|----------------------|
----------------------|-------------3--5--------|----------------------|-------|----------------------|
--5----5----3----5----|--5----3--5--------3--3--|--5----5--------------|-------|--5----5----3----5----|


  Q    E  E  E  E  Q       Q    Q    Q    Q               Q    Q    Q    Q       H        Q    E   E   
------------------------|----------------------|-------|----------------------|-----------------------|
------------------------|----------------------|-------|----------------------|-----------------------|
-------5--2-------------|----------------------|-------|----------------------|-----------------------|
-------------5-----3----|----------------------|-------|----------------------|----------------3s--5--|
--5---------------------|--5----5--------------|-------|--5----5----3----5----|--L--------------------|


  H        Q    Q       Q    Q    E  E  Q     4x
---------------------|------------------------||
---------------------|-----------------------*||
---------------------|------------2-----------||
---------------------|---------------5--3----*||
--5--------3----5----|--L---------------------||


Duration Legend
---------------
W - whole
H - half
Q - quarter
E - 8th
S - 16th
. - note dotted


Tablature Legend
----------------
L - tied note
g - grace note
h - hammer on
p - pull off
b - bend
s - legato slide
~ - vibrato
Login or Register to remove this ad.