Ads

Takuya's Determination (The Place Promised In Our Early Days) Guitar Tab

Submitted: May 25, 2014 by Basisti94

4.666665
Average: 4.7 (3 votes)
Download | Listen
Game: The Place Promised In Our Early Days
Composer(s): Tenmon
Style: Arrangement, Fingerstyle

This song is also called Takuya no Ketsui

AutoScroll: Slow | Medium | Fast
                        Takuya's Determination
                                
The Place Promised in Our Early Days
Tenmon 
Guitar arrangement by Basisti94 (Miro Laaksonen)
25.5.2014

  
Tempo ~ 80

     ^                   ^                    ^                  
     W                   H.           Q       H.           Q     
E||--0----------------|--0------------5----|--3-----------------|
B||--1----------------|--1-----------------|--0------------3----|
G||--2----------------|--2-----------------|--0-----------------|
D||--2----------------|--2-----------------|--0-----------------|
A||--0----------------|--------------------|--------------------|
E||-------------------|--1-----------------|--3-----------------|


  ^                   ^                              ^         
  W                   H.           E  E     H        H         
--0----------------|---------------------|--------------------|
--1----------------|--3------------3--5--|--1-----------------|
--0----------------|--3------------------|-----------2--------|
--2----------------|--3------------------|-----------3--------|
--3----------------|--1------------------|-----------3--------|
-------------------|---------------------|--1-----------------|


  ^                     ^                     ^                 
  H.           E  E     Q    Q    H           W                 
---------------------|--0------------------|--0----------------|
--3------------1--3--|--0------------------|--1----------------|
--2------------------|--1---------1--------|--2----------------|
--0------------------|--2---------2--------|--2----------------|
---------------------|-------2-------------|--0----------------|
---------------------|--0------------------|-------------------|


  ^                    ^                                         
  H.           Q       Q    H        Q       Q    Q    H         
--0------------5----|--7----3-------------|--0------------------|
--1-----------------|--0-------------3----|------------1--------|
--2-----------------|--0------------------|-------0-------------|
--2-----------------|--0------------------|---------------------|
--------------------|---------------------|--3------------------|
--1-----------------|--3------------------|---------------------|


  Q    Q    Q    Q       Q    Q    Q    Q       Q    Q    H         
--1--------------1----|--0---------0---------|---------------------|
------------3---------|-------0---------3----|--1------------------|
-------2--------------|------------1---------|------------2--------|
--0-------------------|--2-------------------|-------2-------------|
----------------------|----------------------|--0------------------|
----------------------|----------------------|---------------------|


                        ^                    ^                  
  Q    Q    H           H.           Q       H        H         
---------------------|--5------------5----|--7--------3--------|
------------1--------|--------------------|--0-----------------|
------------2--------|--2-----------------|--0-----------------|
-------2-------------|--3-----------------|--0-----------------|
--0------------------|--------------------|--------------------|
---------------------|--1-----------------|--3-----------------|


  ^                                                                
  H.           Q       Q    Q    Q    Q       Q    Q    Q    Q     
--0-----------------|-----------------0----|--5--------------5----|
--1-----------------|------------1---------|------------6---------|
--0-----------------|-------0--------------|-------5--------------|
--2------------3----|--2-------------------|--3--------------3----|
--3-----------------|--3-------------------|----------------------|
--------------------|----------------------|----------------------|


  Q    Q    Q    Q       Q    Q    H           W                 
--7---------0---------|---------------------|-------------------|
-------0---------3----|--1------------------|-------------------|
----------------------|------------2--------|-------------------|
--6-------------------|-------2-------------|--2----------------|
----------------------|--0------------------|--2----------------|
----------------------|---------------------|--3----------------|


  Q    Q    H           Q    Q    Q    Q       Q    E  E  Q    Q     
---------------------|-----------------5----|--5-------3-------0----|
--3------------------|--3-------------------|-----------------------|
------------2--------|------------2---------|-------------0---------|
-------0-------------|-------0--------------|-----------------------|
---------------------|----------------------|-------3----------3----|
--2------------------|--1-------------------|--0--------------------|


  Q    Q    Q    E  E     Q    Q    Q    E  E     Q    Q    Q    Q     
--------------------0--|--1--------------0--1--|--3-------------------|
--1--------------3-----|------------3----------|------------1---------|
------------0----------|-------2---------------|----------------------|
--1--------------------|--0--------------------|--2----2----2----2----|
-------3---------------|-----------------------|----------------------|
-----------------------|-----------------------|--0----0----0----0----|


  Q    Q    Q    E  E     Q    Q    Q    Q       E  E  E  E  E  E  E  E   
--5--------------7--5--|--4----0--------------|--------------0-----------|
-----------------------|------------0---------|--------1-----1-----------|
-----------------------|-----------------1----|--2-----------------2-----|
--3----3----3----3-----|----------------------|-----2-----2-----2-----2--|
-----------------------|----------------------|--0-----------------------|
--1----1----1----------|--0----0----0----0----|--------------------------|


  E  E  E  E  E  E  E  E     E  E  E  E  E  E  E  E     E  E  E  E  E  E  Q     
--------------0-----------|--------------------------|-------------------------|
--------------------3-----|--------------------------|--------------------0----|
--------2-----------------|--0-----------------0--2--|--------------0----------|
-----2-----2-----2-----2--|--------2-----2-----2--4--|--------0-----------2----|
--0-----------------------|-----2-----2-----2--------|--2--------2-----2-------|
--------------------------|--0-----------------------|--0--0--------0----------|


  E  E  E  E  E  E  E  E     E  E  E  E  E  E  E  E   
--5-----------------------|--------------------0-----|
--------------------------|--1-----------3-----------|
--------2-----------5-----|--------2-----------------|
-----2-----2-----2-----2--|-----2-----2-----2-----2--|
--0-----------0-----------|--0-----------------------|
--------------------------|--------------------------|


  E  E  E  E  E  E  E  E     E  E  E  E  E  E  Q       E  E  E  E  E  E  Q     
--3-----------------------|-------------------------|-------------------------|
--------3-----------------|--------------------0----|--1-----------------1----|
--------0-----0-----0-----|--------------0----------|--------------2----------|
--------------------------|--------0-----2-----2----|--------2----------------|
-----2-----2-----2-----2--|--2--------2-----2-------|-----3-----3-----3-------|
--0-----------------------|--0--0--------------0----|--1-----------------1----|


                             ^                    ^                  
  E  E  E  E  Q     Q        W                    W                  
--------3-----7----10----|--10----------------|---8----------------||
--0-----------------8----|--10----------------|--10----------------||
-----------0--------0----|---9----------------|---9----------------||
-----0-------------------|---7----------------|---7----------------||
-------------------------|---0----------------|---0----------------||
--3----------------------|--------------------|--------------------||




Duration Legend
---------------
W - whole
H - half
Q - quarter
E - 8th
S - 16th
T - 32nd
X - 64th
. - note dotted
|-n-|  - n-tuplets


Tablature Legend
----------------
L - tied note
x - dead note
g - grace note
(n) - ghost note
> - accentuded note
NH - natural harmonic
AH - artificial harmonic
TH - tapped harmonic
SH - semi harmonic
PH - pitch harmonic
h - hammer on
p - pull off
b - bend
S - shift slide
s - legato slide
/ -  slide into from below or out of upwards
\ -  slide into from above or out of downwards
~ - vibrato
W - wide vibrato
tr - trill
TP - tremolo picking
T - tapping
S - slap
P - pop
< - fade in
^ - brush up
v - brush down
Login or Register to remove this ad.