Ads

Hiroki's Melody (The Place Promised In Our Early Days) Guitar Tab

Submitted: Jun 10, 2009 by TheDoomOfAllFires (Last updated: Feb 04, 2010)

5
Average: 5 (1 vote)
Download | Listen
Game: The Place Promised In Our Early Days
Composer(s): Tenmon
Style: Arrangement, Fingerstyle

AutoScroll: Slow | Medium | Fast
The Place Promised In Our Early Days - Hiroki's Melody
Arranged by TheDoomOfAllFires, 06/10/2009

BPM=75


Hope you like it ! ^^


                             ^                       ^                     
     H        E  E  E  E     H        E  E  E.  S    H        E  E  E  E   
E||--------------------0--|--3--------L--3--1-----|--------------------0--|
B||-----------------1-----|---------------------3-|--1--------L-----1-----|
G||--------------0--------|--0--------L-----------|--0--------L--0--0-----|
D||--------------2--------|-----------------0-----|-----------------------|
A||-----------------------|--3--------L-----------|--3--------L-----3-----|
E||-----------------------|-----------------------|-----------------------|


                          ^                       ^                     
  H        E  E  E.  S    H        E  E  E  E     H        E  E  E.  S  
--5--------L--5--7---3-|--0--------L--------0--|--3--------L--3--1-----|
-----------------------|-----------------1-----|---------------------3-|
-----------------0-----|--0--------L--0--------|--0--------L-----------|
--3--------L-----------|--------------2--------|-----------------0-----|
-----------------------|--3--------L-----------|--3--------L-----------|
--1--------L-----3-----|-----------------------|-----------------------|


  ^                       ^                       ^           ^         
  H        E  E  E  E     H        E  E  E.  S    H        E  E  E  E   
--------------------0--|-----------------------|-----------------0--3--|
--1--------L-----1-----|--3--------L-----0---3-|--1--------L--1-----5--|
--0--------L--0--0-----|--0--------L--0--0-----|--0--------L--0--------|
-----------------------|--0--------L-----------|--------------2--------|
--3--------L-----3-----|-----------------------|--3--------L-----------|
-----------------------|--3--------L-----3-----|-----------------------|


  E  E  E  E  E  S S    E  E  E  E  E.  S    E  E  E  E  E  S S  
--8--------8--7----3-|--5--------5--3---1-|--0-----------0----2-|
---------------------|--------------------|-----------1---------|
---------------------|--------------0-----|--------0------------|
--------7------------|--------3-----------|-----2---------------|
--0--7---------------|-----3--------------|--3--------------2---|
-----------------0---|--1-----------------|---------------------|


  E  E  E  E  E  E     E  E  E  E  E  S S    E  E  E  E   E   E   
--3--------0--3--7--|--8--------8--7----3-|--5--------5--10--12--|
--------------------|---------------------|----------------------|
--------------------|---------------------|----------------------|
--------2-----------|--------7------------|--------3-------------|
-----2--------------|--0--7---------------|-----3----------------|
--0-----------------|-----------------0---|--1-------------------|


                                                      ^             
   E   E   E   E   E  S S     E  E  E   E  E   E      H.            
--13----------13--12----8-|--10--------10--8--10--|--12------------|
--------------------------|-----------------------|--14------------|
--------------------------|-----------------------|--14------------|
----------12--------------|---------8-------------|----------------|
------12------------------|------8----------------|---0------------|
--10------------------8---|---6-------------------|----------------|


   ^                ^                ^                  ^              
   H.               H.               E  Q.     Q        H.             
--12------------|--10------------|--10---------L----|---9------------||
--12------------|--10------------|--10---------L----|--10------------||
--12------------|--11------------|--10--9------L----|---9------------||
----------------|---0------------|---0---------L----|--11------------||
--10------------|----------------|------------------|---0------------||
----------------|----------------|------------------|----------------||




Duration Legend
---------------
W - whole
H - half
Q - quarter
E - 8th
S - 16th
T - 32nd
X - 64th
. - note dotted
|-n-|  - n-tuplets


Tablature Legend
----------------
L - tied note
x - dead note
g - grace note
(n) - ghost note
> - accentuded note
NH - natural harmonic
AH - artificial harmonic
TH - tapped harmonic
SH - semi harmonic
PH - pitch harmonic
h - hammer on
p - pull off
b - bend
br - bendRelease
pb - preBend
pbr - preBendRelease
brb - bendReleaseBend
\n/ - tremolo bar dip
\n - tremolo bar dive
-/n - tremolo bar Release up
/n\ - tremolo bar inverted dip
/n - tremolo bar return
-\n - tremolo bar Release down
S - shift slide
s - legato slide
/ -  slide into from below or out of upwards
\ -  slide into from above or out of downwards
~ - vibrato
W - wide vibrato
tr - trill
TP - tremolo picking
T - tapping
S - slap
P - pop
< - fade in
^ - brush up
v - brush down
Login or Register to remove this ad.

2 comments on Hiroki's Melody

Oh very nice :) I really

Oh very nice :) I really liked the movie hehe

Nice

5

Loved this song!