Ads

The End of Summer (The Place Promised In Our Early Days) Guitar Tab

Submitted: May 25, 2014 by Basisti94

5
Average: 5 (1 vote)
Download | Listen
Game: The Place Promised In Our Early Days
Composer(s): Tenmon
Style: Arrangement, Fingerstyle, Tapped harmonics

This song is also called Natsu no Owari

AutoScroll: Slow | Medium | Fast
                        The End of Summer
                                
The Place Promised in Our Early Days
Tenmon 
Guitar arrangement by Basisti94 (Miro Laaksonen)
25.5.2014



Tempo ~ 74
     ^        ^       ^               ^        ^       ^             
     H        Q       H.              H        Q       H.            
E||--3--------5----|--7------------|--0--------5----|--3------------|
B||--0--------3----|--0------------|--0--------4----|--0------------|
G||--0--------2----|--0------------|--0--------4----|--0------------|
D||--2--------0----|--0------------|--2--------1----|--2------------|
A||--2-------------|---------------|--3-------------|---------------|
E||--0--------2----|--3------------|----------------|---------------|


  ^        ^       ^               ^        ^       ^             
  H        Q       H.              H        Q       H.            
--3--------5----|--7------------|--0--------5----|--3------------|
--0--------3----|--0------------|--0--------4----|--0------------|
--0--------2----|--0------------|--0--------4----|--0------------|
--2--------0----|--0------------|--2--------1----|--2------------|
--2-------------|---------------|--3-------------|---------------|
--0--------2----|--3------------|----------------|---------------|


  ^      TH     TH      ^      TH     TH      ^      TH     TH    
  Q      Q      Q       Q      Q      Q       Q      Q      Q     
--0----<>0----<>0----|--0----<>0----<>0----|--0----<>0----<>0----|
--1------------------|--3------------------|--0------------------|
--0------------------|--2------------------|--0------------------|
--2------------------|--0------------------|--2------------------|
--3------------------|---------------------|---------------------|
---------------------|---------------------|---------------------|


    TH     TH     TH      ^      TH     TH      ^      TH        
    Q      Q      Q       Q      Q      Q       Q      H         
--<>0----<>0----<>0----|--0----<>0----<>3----|--2---------------|
-----------------------|--1------------------|--3----<>3--------|
-----------------------|--0------------------|--2---------------|
-----------------------|--2------------------|--0---------------|
-----------------------|--3------------------|------------------|
-----------------------|---------------------|------------------|


  ^               ^                              TH        NH            
  H.              H.              E  E  E   E    Q         H.            
--0------------|--0------------|--------0h--2---------|--<>0------------|
--0------------|--0------------|-----0---------<>0----|-----------------|
--0------------|--0------------|----------------------|-----------------|
--2------------|--2------------|--2-------------------|-----------------|
---------------|--2------------|----------------------|-----------------|
---------------|--0------------|----------------------|-----------------|


    NH                NH                             
    H.                H.                             
--<>0------------|--<>0------------|---------------||
-----------------|-----------------|---------------||
-----------------|-----------------|---------------||
-----------------|-----------------|---------------||
-----------------|-----------------|---------------||
----0------------|----0------------|---------------||


You can just play it withou those tapped harmonics if you so desire


Duration Legend
---------------
W - whole
H - half
Q - quarter
E - 8th
S - 16th
T - 32nd
X - 64th
. - note dotted
|-n-|  - n-tuplets


Tablature Legend
----------------
L - tied note
x - dead note
g - grace note
(n) - ghost note
> - accentuded note
NH - natural harmonic
AH - artificial harmonic
TH - tapped harmonic
SH - semi harmonic
PH - pitch harmonic
h - hammer on
p - pull off
b - bend
S - shift slide
s - legato slide
/ -  slide into from below or out of upwards
\ -  slide into from above or out of downwards
~ - vibrato
W - wide vibrato
tr - trill
TP - tremolo picking
T - tapping
S - slap
P - pop
< - fade in
^ - brush up
v - brush down
Login or Register to remove this ad.