The Forest of Hope (Pikmin) Mandolin Tab

Submitted: Jul 25, 2018 by DiabeticPancake

0
Download | Listen
Game: Pikmin
Composer(s): Strawberry Flower
Style: Transcription

AutoScroll: Slow | Medium | Fast
Pikmin
The Forest of Hope
Composed by Hajime Wakai
Mandolin Tabs

E|1-0-------0--------1-0-------0--------------|
A|----5-0-----5-3--------5-0-----5-3----------|
D|----------------5------------------5--------|
G|--------------------------------------------|


E|0h1-0---------0----------0-0h3-1------------|
A|------5-0---5----5-3---3---------3----------|
D|---------------------5-------------5--------|
G|--------------------------------------------|


E|1-0-------0--------1-0-------0--------------|
A|----5-0-----5-3--------5-0-----5-3----------|
D|----------------5------------------5--------|
G|--------------------------------------------|


E|0h1-0---------0----------0-0h3-1------------|
A|------5-0---5----5-3---3---------3----------|
D|---------------------5-------------5-3------|
G|--------------------------------------------|


E|3-1-------------------------------0------------|
A|----3-----------3------0-5----0-2---5-3-1-0----|
D|------5-3-2-3-5----3-5------5---------------5-3|
G|-----------------------------------------------|


E|------0--------3---------8--6------11~------|
A|--0-2----1-3-5----6-8-10------10-8----------|
D|5-------------------------------------------|
G|--------------------------------------------|


E|-------8--6------11~---------8--6------11~--|
A|6-8-10------10-8------6-8-10------10-8------|
D|--------------------------------------------|
G|--------------------------------------------|


E|------0-----12-8-3--------8-1-3-------------|
A|5-3-5---3-----------5-1---------------------|
D|----------5-------------3-------------------|
G|--------------------------------------------|


E|0-----12-8-3--------8-1-3-------------------|
A|--3-----------5-1---------------------------|
D|----5-------------3-------------------------|
G|--------------------------------------------|


E|1-0-------0--------1-0-------0--------------|
A|----5-0-----5-3--------5-0-----5-3----------|
D|----------------5------------------5--------|
G|--------------------------------------------|

h = hammer on
~ = tremolo
Login or Register to remove this ad.