Ads

Reminiscing ~ The Bitter Taste of Truth (Phoenix Wright: Trials and Tribulations) Guitar Tab

Submitted: Jul 31, 2014 by ltm_1988 (Last updated: Aug 02, 2014)

4
Average: 4 (1 vote)
Download | Listen
Game: Phoenix Wright: Trials and Tribulations
Composer(s): Noriyuki Iwadare
Style: Arrangement, Fingerstyle
Series: Phoenix Wright

AutoScroll: Slow | Medium | Fast
Reminiscence ~ The Bitter Taste of Truth
Phoenix Wright: Ace Attorney: Trials and Tribulations
Noriyuki Iwadare
ltm_1988
7/1/14

     H           Q     Q       
E||--------------------------||
B||--------------4-----2-----||
G||--------------------------||
D||--------------------------||
A||--------------------------||
E||--------------------------||

     E  E  E  E  E  E  E S S    E  E  E  E  E  E  E  E     E  E  E  E  E  E  E  E     E  E  E  E  E  E  E S S      
E||--------------1---------1-|--------------------------|--------------------------|----------------------1-3-|
B||o-2--1--1--1--------2-4---|--4-----1-----------4--1--|--2-----2-----1-----1-----|--1-----1-----------1-----|
G||-----1-----------1--------|-----0-----------0--3-----|-----1-----------0-----3--|-----1-----------1--------|
D||--3-----------3-----------|--1-----------1-----------|--3-----------2-----------|--3-----------3-----------|
A||o-------------------------|--------------------------|--------------------------|--------------------------|
E||--------------------------|--------------------------|--------------------------|--------------------------|

     E S S E S S  E  E  E S S   E  E  E  E  E  E  E  E     E  E  E  E  E  E  E  E    
E||--4---4---4-3--------0-1-3|--4--3--1-----------------|--------------------------|
B||--------6---------1-------|-----1-----4--3-----3-----|--1-----1--------------L--|
G||----6----------0----------|--1--------------3--------|-----1-----------0--3-----|
D||--6-----------------------|--------------3-----------|--3-----------2-----------|
A||--------------------------|--------------------------|--------------------------|
E||--------------------------|--------------------------|--------------------------|

    S S S S S S S S S S S S S S S S   S S S S S S S S S S S S S S S S
E||-1---4---3---4---6---4---3---4---|-6-------4---6---3---0---3---8---|
B||-1-1---1---1-----4---------------|-6---6-----6---6-5---------------|
G||-1-------------5-5-5---5---5---5-|-7-7---7---------5-5---5---5---5-|
D||-3---------------6---------------|-8---------------5---------------|
A||-3---------------6---------------|-8---------------3---------------|
E||-1---------------4---------------|-6-------------------------------|

    S S S S S S S S S S S S S S S S   S S S S S S S S S S S S S S S S
E||-1---4---3---4---6---4---3---4---|-6-------4---6---3---0---3-3-8-8-|
B||-1-1---1---1-----4---------------|-6---6-----6---6-5-------6---9---|
G||-1-------------5-5-5---5---5---5-|-7-7---7---------5-5---5---5---5-|
D||-3---------------6---------------|-8---------------5---------------|
A||-3---------------6---------------|-8---------------3---------------|
E||-1---------------4---------------|-6-------------------------------|

    S S S S S S S S S S S S S S S S   S S S S S S S S S S S S S S S S
E||-8-6-8-----6---8---6-8-----------|-8-6-8-----6---8---6-8-----------|
B||-6-----6---------------6---------|-8-----8---------------8---------|
G||-6-------------------------------|-9-------8---6---5---------------|
D||-8-------------------------------|-10------------------------------|
A||-8-------------------------------|-10------------------------------|
E||-6-------------------------------|-8-------------------------------|
         |-3-|
    S S S TTT S S S S S S S S S S S   S S S S S S S S S S S S S S S S
E||-8-6-8-----6---8---6-8-----------|-1-4-3-4-6-4-3-4-3-----3---------|
B||-6-----6---------------6---------|-1---------------4-6-4---6-4-----|
G||-6-----565-----------------------|-1---------------3-----------3-5-|
D||-8-------------------------------|-3---------------5---------------|
A||-8-------------------------------|-3---------------6---------------|
E||-6-------------------------------|-1-------------------------------|
         |-3-|                             |-3-|
    S S S SSS S S S S S S S S S S S   S S S SSS S S S S S S S S S S S
E||-8-6-8-----6---8---6-8-----------|-8-6-8-----6---8---6-8-----------|
B||-6-----6---------------6---------|-8-----8---------------8-----4---|
G||-6-----565-----------------------|-9-------------------------------|
D||-8-------------------------------|-10----8108----------------------|
A||-8-------------------------------|-10------------------------6-----|
E||-6-------------------------------|-8-------------------------------|

    S S S S S S S S S S S S S S S S   S S S S S S S S S S S S S S S S
E||-1---------------L---------------|-L---------------L----------------|
B||-----1-----1---------1-----1-----|-----2-----2---------1-----1-4-2-o|
G||---------------------------------|----------------------------------|
D||-3---------------1---------------|----------------------------------|
A||---------------------------------|-4---------------3---------------o|
E||-1---------------L---------------|-L---------------L----------------|

     W                       
E||--1-----------------------||
B||--1-----------------------||
G||--1-----------------------||
D||--3-----------------------||
A||--3-----------------------||
E||--1-----------------------||
Login or Register to remove this ad.