Ads

Godot's Theme ~ The Fragrance of Dark Coffee (Phoenix Wright: Trials and Tribulations) Guitar Tab

Submitted: Mar 30, 2016 by quinndangle2

5
Average: 5 (5 votes)
Download | Listen
Game: Phoenix Wright: Trials and Tribulations
Composer(s): Noriyuki Iwadare
Style: Arrangement, Fingerstyle
Series: Phoenix Wright

AutoScroll: Slow | Medium | Fast
Godot ~ The Fragrance of Dark Coffee 
From Phoenix Wright: Trials and Tribulations
Composed by NORIYUKI IWADARE
Arranged by Brent Quinn

Standard Tuning
~110 BPM
6/4 Time (Swing feel)

 
     W    E   E   E   E     H.     Q    H       Q    E   E   E   E   Q    E   E   E   E 
E|----------------2-------|-2------2----0-----|----------2-------2---0--------------------|
B|------------0-------0---|-------------------|------0-------0------------3---3---2---3---|
G|--------2---------------|-------------------|-------------------------------------------|
D|------------------------|--------2----------|----------------------0--------------------|
A|----------------0---1---|-2-----------------|-0-----------------------------------------|
E|------------------------|-------------------|-------------------------------------------|


   H     E   E   E   E   E   E   E   E     H     E   E   Q.    E   Q      Q    E   Q    E   Q    E   Q    E
E|---------------------------0---1---3---|-5----------------------------|------5---5----2---2-----------------|
B|-3-----------------1---3---------------|------------------------------|------------------------3---3----0---|
G|-------0---2---3-----------0-----------|------------------------------|-------------------------------------|
D|---------------------------------------|------------------------------|-------------------------------------|
A|---------------3-----------------------|---------------0-----0---1----|-2-----------------------------------|
E|-3-------------------------------------|-1-----L---1------------------|-------------------0-------------0---|


   Q    E   E   E   E   E   E   E   E   E   E     Q.    E   E    E  Q    Q    E   E
E|--------------0-------0---2-------------------|-------------------1----0--------0---|
B|-3----0---3-------3-----------3---3-----------|-------3---1---3-------------3-------|
G|----------------------------------------------|-------------------------------------|
D|----------------------0---------------L-------|-------------------------------------|
A|-0------------L---0-----------------------0---|-------------------3---------L-------|
E|----------------------------------------------|-3-------------------------------3---|


   W      E   E   E   E     H     E   E   Q    E   E   E   E     Q    Q    E   E   Q    Q    E   E
E|--------------------8---|-7------------------1---0-------0---|-------------------0-----------------|
B|-1--------------6-------|----------------------------3-------|-3----1----0---1--------3------------|
G|------------------------|------------------------------------|-------------------------------------|
D|------------------------|---------------2--------------------|-------------------0---------L---0---|
A|------------8-----------|-----------2------------------------|-0-----------------------------------|
E|-1------8---------------|-7-----0----------------------------|-------------------------------------|


   Q.    E   E   E   Q.    Q.      H     E   E   Q.    Q.      Q    E   E   E   E   E   E   E   Q    E
E|-------------------------0-----|-----------0---------0-----|----------2---5---2------------------------|
B|-----------0---1---0-----------|-------1-------2-----------|------0---------------3---0---3------------|
G|-------2-----------------------|-2-------------------------|-------------------------------------------|
D|-------------------------------|---------------------------|----------4-----------2--------------------|
A|-------------------------------|-0-------------------------|-2-----------------------------------------|
E|-1-----------------0-----------|---------------------------|----------------------------------0----4---|


   E   E   E   E   E   E   Q    E   Q    E     Q.    E   E   E   Q    E   E   E   E
E|-------------2---0-------0----2------------|-5---------5-------5----3-------1---3---|
B|---------0-----------3-----------------3---|-------3-------3------------------------|
G|-----2-------------------------------------|----------------------------0-----------|
D|-------------2-----------0--------0--------|-------0--------------------------------|
A|-0-------------------------------------0---|-------------------3--------------------|
E|-------------------------------------------|-3--------------------------------------|


   E   E   E   Q    E   Q    E   Q    E     E   E   E   Q    S  S  Q.    E   E   E  
E|-5---0---1------------------------------|-----0---1--------0--1--0-----------------|
B|-------------1--------1-----------------|-3----------------------------0---1---3---|
G|------------------2---------------------|------------------------------------------|
D|-3--------------------------------------|-------------3----------2-----------------|
A|-------------3-----------------0----3---|-2----------------------------------------|
E|----------------------1----3------------|------------------------------4-----------|


   E   E   E   E   E   E   E   E   E   E   Q      Q.    Q    E   Q.    Q    E     Q.    Q.    Q    E   E   E   E
E|-------------------------0-------5-------8----|-8----------5---5----------8---|-7------------------------2-------|
B|-3---1---0---0---1---3------------------------|-------------------------------|----------------------0-------0---|
G|-----------------------------0----------------|-------------------------------|------------------2---------------|
D|----------------------------------------------|-0--------------------0--------|----------------------------------|
A|-0--------------------------------------------|----------------0--------------|-7--------------------4-------1---|
E|-------------4-----------3-----------2--------|-------1-----------------------|-------7-----6--------------------|


   Q.    E   E   E   Q    E   E   E   E     Q    E   E   E   E   Q    E   E   E   E
E|-2-------------2---2----0---------------|----------2-------2---0--------------------|
B|-------3---0----------------------------|------0-------0------------3---3---2---3---|
G|----------------------------------------|-------------------------------------------|
D|-------4-----------2--------------------|----------2-----------0--------0-----------|
A|-2--------------------------------------|-0-------------------------------------0---|
E|----------------------------0---2---4---|-------------------------------------------|


   Q.    E   E   E   E   E   E   E   E   E     Q.    Q    E   Q.    E   Q      Q    E   Q    E   Q    E   Q    E
E|-------------------------------0---1---3---|-5-----------------------------|------5---5----2---2-----------------|
B|-3---------------------1---3---------------|-------------------------------|------------------------3---3----0---|
G|-----------0---2---3-----------0-----------|-------2-----------------------|-------------------------------------|
D|-------0-----------------------------------|-------------------------------|----------4--------------------------|
A|-------------------3-----------------------|----------------0-----0---1----|-2--------------------------2--------|
E|-3-----------------------------------------|-1----------1------------------|-------------------0-------------0---|


   Q    E   E   E   E   E   E   E   Q    E     Q.    E   E   E   Q    E   E   E   E
E|--------------0-------0---2----------------|-------------------1----0-----------0---|
B|-3----0---3-------3-----------3---3--------|-------3---1---3----------------3-------|
G|----------------------------------2--------|----------------------------------------|
D|----------2-----------0--------------------|-------0--------------------------------|
A|-0-------------------------------------0---|-------------------3--------------------|
E|-------------------------------------------|-3--------------------------3-----------|


   Q.    Q.    Q.    E   E   E     Q.    Q    E   Q    E   E   E   E     Q    E   E   E   E   Q    E   Q    E
E|---------------------------8---|-7-------------------1---0-------0---|----------------------0-----------------|
B|-1---------------------6-------|-----------------------------3-------|-3----1-------0---1--------3------------|
G|-------------------5-----------|-------------------------------------|----------------------------------------|
D|-------------3-----------------|----------------2--------------------|----------------------0--------0--------|
A|-------3-----------------------|------------2------------------------|-0--------------------------------------|
E|-1-----------------------------|-7-----2-----------------0-----------|----------0-------------------------0---|


   Q.    E   E   E   Q.    Q.      Q.    E   E   E   Q.    Q.      Q    E   E   E   E   E   E   E   Q    E
E|-------------------------0-----|---------------0---------0-----|----------2---5---2------------------------|
B|-----------0---1---0-----------|-----------1-------2-----------|------0---------------3---0---3------------|
G|-------2-----------------------|-2-----------------------------|-------------------------------------------|
D|-------------------------2-----|-------2-----------------------|----------4-----------2--------------------|
A|-------3-----------------------|-0-----------------------------|-2-----------------------------------------|
E|-1-----------------0-----------|-------------------------------|----------------------------------0----4---|


   E   E   E   E   E   E   Q    E   Q    E     Q.    E   E   E   Q    E   E   E   E
E|-------------2---0-------0----2------------|-5---------5-------5----3-------1---3---|
B|---------0-----------3-----------------3---|-------3-------3------------------------|
G|-----2-------------------------------------|----------------------------0-----------|
D|-------------2-----------0--------0--------|-------0--------------------------------|
A|-0-------------------------------------0---|-------------------3--------------------|
E|-------------------------------------------|-3--------------------------------------|


   E   E   E   Q    E   Q    E   Q    E     E   E   E   Q    S  S  Q.    E   E   E
E|-5---0---1------------------------------|-----0---1--------0--1--0-----------------|
B|-------------1--------1-----------------|-3----------------------------0---1---3---|
G|------------------2---------------------|------------------------------------------|
D|-3--------------------------------------|-------------3----------2-----------------|
A|-------------3-----------------0----3---|-2----------------------------------------|
E|----------------------1----3------------|------------------------------4-----------|


   E   E   E   E   E   E   E   E   E   E   Q      Q.    Q    E   Q.    Q    E     Q.    Q.    Q    E   E   E   E
E|-------------------------0-------5-------8----|-8----------5---5----------8---|-7----------------------------0---|
B|-3---1---0---0---1---3------------------------|-------------------------------|------------------------------0---|
G|-----------------------------0----------------|-------------------------------|------------------2---------------|
D|----------------------------------------------|-0--------------------0--------|--------------------------2-------|
A|-0--------------------------------------------|----------------0--------------|-7-----2-----1--------4-----------|
E|-------------4-----------3-----------2--------|-------1-----------------------|----------------------------------|

   W.
E|-2------|
B|-0------|
G|-2------|
D|-0------|
A|--------|
E|-3------|



//Key//

 L Sustain Note
 . Dotted note (extend duration)
 w Whole note
 H Half note
 Q Quarter Note
 E Eighth note
 S Sixteenth Note
Login or Register to remove this ad.

2 comments on Godot's Theme ~ The Fragrance of Dark Coffee

Time Signature

5

This is a great tab, but instead of 6/4 it should be in 6/8, because the song is triple meter and not duple.

Gorgeous

Seriously amazing, been looking for this for a while.