Stranger in the Home (Phantom: Requiem for the Phantom) Guitar Tab

Submitted: Mar 16, 2018 by Coolbreeze (Last updated: Mar 16, 2018)

0
Download | Listen
Game: Phantom: Requiem for the Phantom
Composer(s): Hikaru Nanase
Style: Arrangement, Fingerstyle, Natural harmonics

AutoScroll: Slow | Medium | Fast
                       Stranger in the Home                               
		~Phantom : Requiem for the Phantom~ 

Music by Nanase Hikaru
Tabbed by Coolbreeze 
Tempo = 64

     ^                  ^                      ^                    
     Q    E  Q    E     E.  T  T E  E  Q       E.  T  T Q.      E   
E||--0----0--1----3--|--1---3p-1-0----------|----------------------|
B||--0---------------|----------------------|----------------------|
G||--2---------------|-----------------2----|--1---2p-1---------1--|
D||--2---------------|--------------2-------|--3--------3~---------|
A||--0---------------|--0--------0----------|--0-------------------|
E||------------------|----------------------|----------------------|


       ^           ^                    ^                   ^      ^  ^     
  Q    H           E  E  Q.      E      E.  S E  E  Q       Q.     E  Q     
----------------|-------------------|--------------------|-----------------|
----------------|--5--6--8------10--|--12---8-6--5-------|--3------1-------|
--1----2--------|--5--7--9------10--|--12---9-7--5-------|--4------2--1----|
-------2--------|-------------------|---------------2----|------------2----|
--0-------------|--0----------------|---0----------------|--0---------0----|
----------------|-------------------|--------------------|-----------------|


  ^                ^                   ^                                      
  Q    H           S S S S H           S S S S S Q.     S    E  E  Q    Q     
----------------|-------------------|-------------------3-|-------------0----|
--0----1--------|--0---0---3--------|--0---0-1-3-L--------|--0-----1---------|
--1-------------|--------5----------|------0--------------|--0-----2---------|
--2-------------|----3--------------|----0----------------|-----2------------|
----------------|--5----------------|---------------------|--0---------------|
----------------|-------------------|--3------------------|------------------|


  ^                 ^                                       
  E  E  H           S S S S Q    E  E     H        E    E   
-----------------|------------------3--|--0----------------|
--0-----1--------|--0---0-1-3----------|-------------------|
--0-----2--------|--0-0----------0-----|--------------<>7--|
-----2-----------|--0------------------|-------------------|
--0--------------|---------------------|-------------------|
-----------------|--1------------------|--3----------------|


                       v                  ^                          
    Q      H           Q    E  E  Q       E  S S T T T T T T E.  E   
--<>7---------------|--0----------0----|--0------0-----------0------|
---------<>8--------|--0---------------|--0--------0---0---------0--|
--------------------|--2-------2-------|--2--2-------2---2----------|
--------------------|--2----2----------|--3----3-----------3--------|
--------------------|--0---------------|----------------------------|
--------------------|------------------|----------------------------|


  v               ^ ^                         ^                           
  E  T T S E  S S S E.     Q    E  E  Q       Q    T T T T T T T T E  E   
--0------0--------0-0---|------------------|-------------0-----0---------|
--0-------------0-0-0---|--3----------3----|--0------0-----0-----0-------|
--2----2------2---2-2---|----------0-------|--2----2---2-----2-----2-----|
--2--2-----2------2-2---|-------0-----0----|--2-----------------------2--|
------------------------|------------------|--0--------------------------|
------------------------|--3---------------|-----------------------------|


  ^                                                                   
  Q    T T T T T T T T E  S S    E  E  E  E  E.  S    Q    Q.     E   
--0----------0-------0--------|--------------------|-----------------|
--0------0-------0--------0---|--3---------------1-|--0--------------|
--2--------2-------2------2---|--0--2-----0--2-----|-------2---------|
--3----3-------3-------3----0-|--------0-----------|--------------0--|
------------------------------|--------------------|-----------------|
------------------------------|--3-----------------|--3--------------|


                        ^                  ^                    
  Q      Q      Q       Q    E  Q    E     E.  T  T E  E  Q     
-------<>7-----------|--0----0--1----3--|--1---3p-1-0----------|
--------------<>8----|--0---------------|-----------------1----|
---------------------|--2---------------|----------------------|
---------------------|--2---------------|--------------2-------|
---------------------|--0---------------|--0-------------------|
--3------------------|------------------|----------------------|


                               ^           ^                 
  E  S T  T Q.      E     Q    H           E  E  Q.      E   
-----------------------|-------0--------|-------------------|
-----------------------|-------1--------|--5--6--8------10--|
--1----2p-1---------1--|--1----2--------|--5--7--9------10--|
-----3------3~---------|----------------|-------------------|
--0--------------------|--0-------------|--0----------------|
-----------------------|----------------|-------------------|


                       ^          ^       v    ^           ^                  
   E.  S Q    E  E     E  Q    E  Q       Q    H           S S S S Q.     E   
--------------------|------------------|----------------|--------------------|
--12---8-6----5-----|--3-------1--0----|--0----1--------|--0---0---3---------|
--12---9-7----5-----|--4-------2--1----|--1----2--------|--------5-----------|
-----------------2--|-----2-------2----|--2----2--------|----3------------3--|
--------------------|--0---------------|--0-------------|--5-----------------|
--------------------|------------------|----------------|--------------------|


  ^                       ^    ^           ^                
  S S S S Q.     T  S.    Q    H           E  E  Q    Q     
-----------------2h-3--|----------------|------------------|
--0---0-1-3------------|--3----1--------|--0-----1---------|
-----------------------|--4----2--------|--1-----2---------|
----0------------------|-------2--------|-----2-------2----|
-----------------------|----------------|--0---------------|
--3--------------------|--3-------------|------------------|


                          ^                                  
  S S S S Q.     T  S.    Q    Q    Q          H.            
-----------------2h-3--|-----------------|--<>10------------|
--0---0-1-3------------|--0---------0----|------------------|
------0----------------|--0----0---------|------------------|
----0------------------|-----------------|------------------|
-----------------------|-----------------|------------------|
--1--------------------|--3--------------|------------------|


  v                                               v                      
                        |-3-| |-3-|                                      
  Q    E  S S E  S S    S S S S S S E  E  Q       Q    S T T S T T Q     
--0----0------0------|--------0-----0-----3----|--0----------0-----0----|
--0-------0---0--0---|----------0------0-------|--0--------0-----0------|
--2-------0---0--0---|----2-------2------------|--2----2-2--------------|
--2---------2------2-|------3------------------|--2------------2--------|
--0------------------|--0----------------------|--0---------------------|
---------------------|-------------------------|------------------------|


  ^     ^             ^                               v               
  E  E  Q    E  E     Q    T T T T T T T T T E  S.    Q.     E  Q     
-------------------|--0----0-----0-------0---------|--0------3-------|
--3-----0----------|--0--------0-----0-------0-----|--0---------0----|
--0-----0-------0--|--2------2---------2--------0--|--2--------------|
-----3-------0-----|--2------------2-------2-------|--3--------------|
-------------------|--0----------------------------|--0--------------|
--3----------------|-------------------------------|-----------------|


  v              
  H.             
--0------------||
--0------------||
--2------------||
--2------------||
--0------------||
---------------||
Login or Register to remove this ad.