Login or Register to remove this ad.

Motavia Village (Phantasy Star 4) Guitar Tab

Submitted: Jan 24, 2010 by Shade (Last updated: Jan 31, 2010)

5
Average: 5 (1 vote)
Download | Listen
Game: Phantasy Star 4
Composer(s): Izuho Takeuchi, Yoshimi Nakagaki
Style: Arrangement, Fingerstyle
Series: Phantasy Star

AutoScroll: Slow | Medium | Fast
Phantasy Star IV - Motavia Village
Standard Tuning
Arranged by Shade

This song is in three.



   Q.  E  E  E    H       Q    E  E  E  E  E  E      H        Q
e--------------|-------------|----3--3--3--3--3---|--5--------3--|
B--------------|-------------|--------------------|--------------|
G--------------|----------0--|--------------------|-----------0--|
D------------0-|--4----------|----------------0---|--4-----------|
A------0--2----|-------------|----------0--2------|--------------|
E--3-----------|-------------|--3-----------------|--------------|


   Q.  E  E  E    H       Q    Q.   E  E  E     H        Q
e--------------|-------------|---------------|--------------|
B--0-----------|----------0--|---------------|--------------|
G--------------|--2-------0--|--0------------|-----------0--|
D------------0-|--4----------|------------0--|--4-----------|
A------0--2----|-------------|------0--2-----|--------------|
E--3-----------|-------------|--3------------|--------------|


   Q       E  E  E  E     H       Q     E   E E E E  E      Q     Q     Q
e----------------------|-------------|-------------------|------------------|
B--0h1p0---------0-----|----------0--|--1---------1--3---|--5-----3-----1---|
G----------2-----------|--2-------0--|----------0--------|--5-----4-----2---|
D-------------------0--|--4----------|------0-2----------|------------------|
A-------------0--2-----|-------------|--3----------------|--7-----5-----3---|
E--3-------------------|-------------|-------------------|------------------|


   E  E  E  E  E  E     Q    Q      Q         E  E  E  E  E  E      Q    Q    Q    
e--------------------|---------------------|--------------------|-------------------|
B--0-----0-----0-----|--0------------------|--1-----------3-----|---1----3----5-----|
G--------------0--2--|-------2------0------|--0--------------0--|---0---------0-----|
D-----------0--------|--------------0------|--2--------0--2-----|---2----4----------|
A-----0--2-----------|---------------------|--3-----3-----------|---3----5----7-----|
E--3-----------------|--3------------------|-----0--------------|-------------------|



   E  E   E  E  E  E      H      Q         Q. E  E  E     H       Q
e---------------------|-----------------|--------------|---------------||
B--0------------------|----------3------|--0-----------|---------------||
G---------2-----0-----|----------0------|--0-----------|----------0----||
D---------------------|---4-------------|-----------0--|--4------------||
A-----2------------2--|---0-------------|-----0--2-----|---------------||
E--3---------3--------|---2-------------|--3-----------|---------------||



   Q   E  E  E   E     H     Q     Q. E  E  E     Q   Q   Q 
e------3------------|-----------|--------------|-------------|
B------------3------|--1-----3--|--0-----------|-------------|
G-------------------|--------0--|--------------|------0---2--|
D----------------0--|--4--------|-----------0--|--4-------0--|
A---------0--2------|-----------|-----0--2-----|------2---0--|
E--3----------------|-----------|--3-----------|------3------|

   Q  E  E  E   E     H      Q     E  E  E  E  E  E     Q    Q    Q
e------------------|------------|--0-----------------|--0------------|
B--3--1-----3------|--1------3--|--------------1--3--|-------3----1--|
G------------------|---------0--|--------0--4--------|------------0--|
D---------------0--|--4---------|-----2--------------|---------------|
A--------0--2------|------------|--3-----------------|--3----2----0--|
E--3---------------|------------|--------------------|---------------|



    E  E  E  E  E  E     E  E  E   E  E  E     E  E  E  E  E  E
e---------------------|---------------------|--------------------|
B---0-----0-----0-----|--0------------0-----|--1-----------1--3--|
G---------------0-----|--------2------0-----|-----------0--------|
D------------0-----0--|------------0-----0--|-----0--2-----------|
A------0--2-----------|-----0--2------------|--3-----------------|
E---3-----------------|--3------------------|--------------------|


   E  E  E  E  E  E     E  E  E  E  E  E     E  E  E  E  E  E 
e--------0-----0--2--|--3-----------------|--2------------------|
B--1--3-----3--------|-----3--2--3--2--3--|-----3--2--3--2--3---|
G-----------0--------|--------0-----0-----|--------0-----0------|
D--------------2-----|--0-----------------|--0------------------|
A-----------------3--|-----2--------------|---------------------|
E--------------------|--3-----------------|--2------------------|


   E  E  E  E  E  E     E  E  E  E  E  E 
e--3-----------------|--------------------|
B-----3--0-----------|--------------0--3--|
G-----------2--0-----|--0-----0--2--------|
D--0--------------0--|-----0--------------|
A--------------------|--------------------|
E--3-----------------|--3-----------------|


     
    E  E  E  E  E  E      E  E  E E  E  E     E  E  E  E  E  E
e---0-----0-----0------|--0----------------|--------------------|
B---------1-----1------|--------3----1-----|--0-----------------|
G---------0-----0------|-------------------|--------0-----2-----|
D------2-----2-----2---|-----2----0--------|--------0-----0-----|
A---3------------------|--3-------------3--|-----2-----2-----0--|
E----------------------|-------------------|--3-----------------|


   E  E  E  E  E  E     E  E E E  E  E     Q    Q    Q     E  E  E  E  E  E 
e--------------------|------------------|------------0--|--------------------|
B--------------------|--1----1----1-----|--1----3-------|--0-----------------|
G--0-----------------|--2----2----2-----|--2------------|--------------------|
D--------0-----------|--2---------------|--2------------|--------0-----0-----|
A-----2-----2--------|-----0---0--------|---------------|-----2-----2-----2--|
E--3-----------3--2--|--0------------0--|---------------|--3-----------------|


   E  E  E  E  E  E      E  E  E  E  E  E     E  E  E  E  E  E
e--------------------|---------------------|--0-----------------|
B--------------------|------------------0--|--------------0-----|
G--------------------|---0-----------0-----|--0-----2-----0-----|
D--------0-----0-----|---------2--4--------|--------2-----2-----|
A-----2-----2-----2--|------2--------------|-----2-----2-----2--|
E--2-----------------|---0-----------0-----|--0-----------------|


   E  E  E  E  E  E     E  E  E  E  E  E       Q    Q   Q     Q    Q  Q
e--------------------|----------------------|--------------|--------------|
B--------------------|-----------------0----|--------------|--------------|
G--2-----------------|--------------2-------|-----------0--|--0-------0---|
D--------------2-----|--2--------2----------|--2----4------|--2----4------|
A--0-----0--2--3-----|--0--2--3-------------|--3-----------|--3-----------|
E-----0-----------0--|----------------------|--0-----------|--------------|


                       slower
    E  E  E  E  E  E     Q    Q    Q        H.
e---------------------|---------------||----3----|
B---3-----------------|--1----0-------||----0----|
G---2--------------2--|--0----0----2--||----0----|
D---------0--2--4-----|--2----0-------||----0----|
A------0--------------|--3------------||----2----|
E---2-----------------|--3---------2--||----3----|

Login or Register to remove this ad.

10 comments on Motavia Village

i'm re-doing this as we

this is the final copy;-)

this is my favorite tab ive

this is my favorite tab ive ever made so far, and so fun to play...im only commenting on this because nobody else will...good luck finding fans of the classic series who also play guitar=p

Never played the game

Never played the game personally, but i do like your tab =)

there is such beautiful music

5

there is such beautiful music in this series..especially PSIV. And its so close to my heart in general that I think its time somebody started tabbing as many as possible..it keeps me up all night and sometimes my brain just goes totally wacko but its worth it. phantasy star's classic series changed my life many years ago and helped me build my basic philosophy on life that i still live by to this day.

and while as far as music goes, i'm a huge fan of uemastu and i even found this site so i could learn to play some of his pieces, the story of phantasy star puts final fantasy to shame. no joke.

huh. that very last note has

5

huh. that very last note has a typo in it. second number down should be a 0 or a 3, depending on preference. see what late nights do.. hehe

I think you mean this piece

I think you mean this piece is in 3/4 time, not 3 bpm. Sounds more like 112 bpm. Bpm means beats per minute or, like, how many times you tap your foot to the beat in one minute.

beats per measure was my

5

beats per measure was my intention though i do know what bpm usually stands for, i was too exhausted to type it out. and does it matter? you knew what i meant.

I don't think most people

I don't think most people would guess bpm = beats per measure. And yeah, you can post an update, don't worry about it.

yeah, i hear ya...i started

yeah, i hear ya...i started reading/playing music at around 3 and didnt stop until i was about 15, in between then and now was about a 10 year hiatus and i'm lucky i can remember anything at all! some of my tabs might look not quite right in the duration marker or measure marker department, but im hoping people who know how to read music will be able to deduce things until it all comes back to me. the more things i learn how to play that are written right, the more i remember how to write things. my apologies.

think theyd get mad if i

5

think theyd get mad if i posted this again with the changes ive made since? ;-) or is that too much of a pain..