Login or Register to remove this ad.

Her Last Breath (Phantasy Star 4) Guitar Tab

Submitted: Jan 11, 2010 by Shade (Last updated: Jan 18, 2010)

5
Average: 5 (1 vote)
Download | Listen
Game: Phantasy Star 4
Composer(s): Izuho Takeuchi, Yoshimi Nakagaki
Style: Arrangement, Fingerstyle
Series: Phantasy Star

AutoScroll: Slow | Medium | Fast
Her Last Breath - Phantasy Star IV
Dropped D Tuning
4/4


      W             H.  Q        E   E  E   E  E   E  E    E      Q    Q    Q. E                
e-----2-------|-----2-----||-----2------------------------4h5--|--4---------------|
B-------------|-----------||*----------------------0--2--------|-------2----L-----|
G-------------|-----------||-----2----------1--2---------------|------------------|
D-------------|-----------||---------4--4----------------------|------------------|
A-------------|---------4-||*----------------------------------|------------------|
D-------------|-----4-----||-----4-------------4----------4----|--3------------3--|



   E   E   E  E  E  E  E   E     H    Q.     E     E   E  E  E  Q. E     E   E   Q    Q  Q
e-----4h5--4--0---------------|----------------|----------------------|----------------------|
B----------------0------------|----------------|----------------------|------2---------------|
G-------------------2--1------|----------------|---------1--2---4--2--|--4-------2-----------|
D--------------------------2--|--4----L--------|------4--0------------|------------------2---|
A-----------------------------|----------------|----------------------|----------------------|
D--2-----------------------2--|--1----------1--|--0-------------6-----|--4------------4------|


   Q   Q   Q   Q      E   E  E  E  E  E  E   E       E   E  E   E  E   E  E   E     E   E   E   E  E  E  E  E
e-----------------|------------------------------|--------------2--2---4--4---9--|--4--------------------------|
B-----------------|----------------2-------------|-------2-------------0--2---10-|----------2---------------2--|
G----------2------|---1---------1-----1----------|--------------1--2-------------|--------------------1--1-----|
D--4-------0------|---3------3-----------3-------|-------4--4--------------------|----------3---3--3-----------|
A--5-----------0--|---4---4------------------4---|-------------------------------|------4---4------------------|
D------0----------|--------------------------3---|---4-------------4-------------|--3-----------------------3--|


     E   E  E  E  E  E  E    E     E  E  E  E  E  E  E   E     E  E  E  E   E  E  E  E  
e--------5--4--0----------------|---------------------------|---------------------------|
B--------------0--0--0--0-------|-----------0--0------------|---------------------------|
G--------------1--1--2--1-------|---------------------------|--------1--2---4--------2--|
D--------2--2-----2----------2--|--4--------------4--4------|-----4--0------------3-----|
A--------------------2--2-------|-----2--2---------------2--|------------------4--------|
D----2-----------------------2--|--1---------------------1--|--0------------3--------3--|



    E  E  E  E  E  E   E   E       E  E  E  E   E  E  E  E      E  E  E  E  E  E  E  E        W               
e------------------------------|---5------------2-----------|---1--------------4--1------||---2---||
B------2-----------------------|----------------------------|---------------2------------||---2---||
G---4-----2--------------------|----------------2--------2--|---1--------1---------------||---2---||
D------------------4-------2---|---4--------0---------0-----|---------3--------3--3------||---4---||
A------0-----4--4--------------|---------0---------0--------|------4-----------------4---||---4---||
D---2-----4------------4-------|------0---------------------|---3------------------------||---4---||



   E  E  E  E  E  E  E  E     E  E  E  E  Q  E  E      E  E  E  E  E  E   E  E      E  E  E  E  E  E  E  E
e--------------------------|------------------------|----------------------------|---------------------------|
B--0--2--------------------|-----------0--2--2--3---|--0------------------2--0---|---------------------------|
G--1-----2-----------------|-----1--2-----2---------|--0-----------0-------------|--2-----------1------------|
D--2-----------------2-----|--4-----------2---------|--0--------0-----0----------|--------------2------------|
A--2-----------0-----------|--0--2--4-----0---------|--2-----2-------------------|-----0-----------------0---|
D-----0--2--4-----4--2--0--|------------------------|--5--5----------------------|--4-----6--4-----2--6------|


   E  E  E  E   E  E  E  E     E  E  E  E   E  E  E  E      E  E  E  E  E  E  E  E     E  E  E  E   H
e---------------------------|---------------------------|---------------------------|-------------------||
B-----0-----0---2-----------|-----0-----0---2--------3--|---------------------------|---------------2--*||
G--2-----2---------------2--|--2-----2--1---2-----------|---4--------2--4-----4--2--|--1--------1---1---||
D--------0--2---4--2--0-----|--------4---------2--------|---------5--------0--------|--------3------3---||
A-----0------------------0--|-----4---------------0-----|------5--------------------|-----4---------4--*||
D--0------------0-----------|--4--------3---2-----------|---5-----------5-----------|--3----------------||


Login or Register to remove this ad.