Login or Register to remove this ad.

Main Theme (Phantasy Star 3) Guitar Tab

Submitted: Jan 23, 2010 by Shade (Last updated: Feb 18, 2010)

4.8
Average: 4.8 (5 votes)
Download | Listen
Game: Phantasy Star 3
Composer(s): Izuho Takeuchi
Style: Arrangement, Fingerstyle

AutoScroll: Slow | Medium | Fast
Phantasy Star III
Main Theme

Standard Tuning:  eBGDAE
4/4



                                                                                     |-3-|
    E  E  E  E  E  E  E  E     E  E  E  E  E  E  E  E     E  E  E  E  E  E  E  E     E E E  E  E  E  E  E  E
e|--------------------------|--------------------------|--------------------------|---------------------------|
B|--------0-----------0-----|-----3--3--------------3--|-----3--3--------------1--|--1-3-1--------------------|
G|--0--2-----------0-----0--|--2-----------------2-----|--2-----------------------|---------0--------------0--|
D|--------------0-----------|-----------------0--------|--------------------0-----|------------------0--2-----|
A|-----------2--------------|--------------0-----------|--------------2--0--------|---------------3-----------|
E|--3-----------------------|--2--------2--------------|--1--------1--------------|--0---------3--------------|


   |-3-|
   E E E  E  E  E  E  E  E     E  E  E  E  E  E  E  E     E  E  E  E  E  E  E  E     Q   Q   Q   Q
e---------------------------|-----3--3-----------------|-----3--3--------------3--|--2---0-----------|
B--1-3-1--------------------|--0--------------------0--|--------------------------|--3-------3---1---|
G---------0-----------------|--------------------0-----|--2-----------------2-----|--2---0-----------|
D--1---------1--0-----------|--------------2--4--------|-----------------2--------|--0---------------|
A------------------3-----0--|--2--------2--------------|--0-----0--2--3-----------|------3---2-------|
E---------------------3-----|--------0-----------------|--------------------------|--------------2---|


                                                                                     |-3-|
    E  E  E  E  E  E  E  E     E  E  E  E  E  E  E  E     E  E  E  E  E  E  E  E     E E E  E  E  E  E  E  E
e|--------------------------|--------------------------|--------------------------|---------------------------|
B|--------0-----------0-----|-----3--3--------------3--|-----3--3--------------1--|--1-3-1--------------------|
G|--0--2-----------0-----0--|--2-----------------2-----|--2-----------------------|---------0--------------0--|
D|--------------0-----------|-----------------0--------|--------------------0-----|------------------0--2-----|
A|-----------2--------------|--------------0-----------|--------------2--0--------|---------------3-----------|
E|--3--3--3--------------3--|--2--2--2--2-----------2--|--1--1--1--1-----------1--|--0------0--0--0-----------|


   |-3-|
   E E E  E  E  E  E  E  E     E  E  E  E  E  E  E  E     E  E  E  E  E  E  E  E      H   Q.  E
e---------------------------|-----3--3-----------------|-----3--3--------------3--|---2---0------|
B--1-3-1--------------------|--0--------------------0--|--------------------------|---3---1------|
G---------0-----------------|--------------------0-----|--2-----------------2-----|---2----------|
D--1-1-1-----1--0-----------|--------------2--4--------|-----------------2--------|---0----------|
A---------3--------3-----0--|--2--2-----2--------------|--0--0--0--2--3-----3--3--|-------3------|
E---------------------3-----|--------0-----------------|--------------------------|--------------|



   E  E  E  E  E  E  E  E     E  E  E  E  E  E  E  E     E  E   E  E  E  E  E  E
e--------7--------------5--|--5--3--3-----------------|--------10--------------8--|
B--1s-3--0-----------------|--------------------------|--1s-3---7-----------------|
G--------------------------|--------------------------|--0------------------------|
D--2s-4--------------------|--------2-----2-----2-----|--2--4---------------------|
A--0--L--5--5--5--5--3-----|-----2-----2-----2-----2--|--3s-5---9--9--9--9--7-----|
E--------------------------|--0-----------------------|---------------------------|



   E  E  E  E  E  E  E  E     E  E  E  E  E  E  E  E    E  E  E  E  E  E  E  E     E  E   E  E  E  E  E  E
e--8--7--7-----------------|--------7--------------5--|-5--3--3-----------------|--------10--------------8---|
B--------------------------|--1s-3--0-----------------|----0--------------------|--1s-3---7------------------|
G--------------------------|--------------------------|-------------------------|--0-------------------------|
D--------------------------|--2s-4--------------------|-------------------------|--2--4----------------------|
A--------------------------|--0--L--5--5--5--5--3-----|----------2-----2-----2--|--3s-5---9--9--9--9--7------|
E--5-----3--3--3--3--3--2--|--------------------------|-0--2--3--3--3--3--3--3--|----------------------------|



  E   E  E  E  E  E  E  E     E  E  E  E  E  E  E  E     E  E  E  E  E  E  E  E
e-8s--7--7-----------------|--------------------------|--3-----------------------|
B--------------------------|--------------------------|--------------------------|
G--------------------------|--0-----------------------|--0-----------------------|
D--------------------------|--0-----------------------|--------------------------|
A-5------------------------|--------------------------|--------------------------|
E--------3--3--3--3--3--3--|--3--3--3--3--3--3--3--3--|--3--3--3--3--3--3--3--3--|


             |-3-|     |-3-|       |-3-|               |-3-|      |-3-|  |-3-|  |-3-|
   E  E  E   S S S  E  S S S   E   S S S     E  E  E   S S S  E   S S S  S S S  S S S
e-----------------------------------------|---------------------------------------------|
B-----------------------------------------|---------------------------------------------|
G--0---------------------------0----------|--2------------------------------------------|
D-------------------4---------------------|---------------------------------------------|
A-----------------------------------------|---------------------------------------------|
E--3--3--3---3-3-3--3--3-3-3---3---3-3-3--|--2--2--2---2-2-2--2---2-2-2--2-2-2--2-2-2---|


             |-3-|     |-3-|   |-3-|  |-3-|                |-3-|      |-3-|  |-3-|   |-3-|
   E  E  E   S S S  E  S S S   S S S  S S S      E  E  E   S S S  E   S S S  S S S   S S S
e--------------------------------------------|-----------------------------------------------|
B--------------------------------------------|-----------------------------------------------|
G--0-----------------------------------------|-----------------------------------------------|
D-------------------1------------------------|---0-------------------------------------------|
A--3--3--3---3-3-3--3--3-3-3---3-3-3--3-3-3--|-----------------------------------------------|
E--------------------------------------------|---3--3--3---3-3-3--3---3-3-3--3-3-3---3-3-3---|


             |-3-|      |-3-|       |-3-|               |-3-|      |-3-|  |-3-|  |-3-|
   E  E  E   S S S  E   S S S   E   S S S     E  E  E   S S S  E   S S S  S S S  S S S
e------------------------------------------|---------------------------------------------|
B------------------------------------------|---------------------------------------------|
G--0----------------------------0----------|--2------------------------------------------|
D-------------------4----------------------|---------------------------------------------|
A------------------------------------------|---------------------------------------------|
E--3--3--3---3-3-3--3---3-3-3---3---3-3-3--|--2--2--2---2-2-2--2---2-2-2--2-2-2--2-2-2---|


              |-3-|     |-3-|   |-3-|   |-3-|                |-3-|      |-3-|   |-3-|   |-3-|
    E  E  E   S S S  E  S S S   S S S   S S S      E  E  E   S S S  E   S S S   S S S   S S S
e-----------------------------------------------|----------------------------------------------|
B-----------------------------------------------|----------------------------------------------|
G---0-------------------------------------------|--0-------------------------------------------|
D--------------------4--------------------------|--0-------------------------------------------|
A---3--3--3---3-3-3--3--3-3-3---3-3-3---3-3-3---|----------------------------------------------|
E-----------------------------------------------|--3--3--3---3-3-3--3---3-3-3---3-3-3---3-3-3--|




   E  E  E  E  E  E  E  E     E  E  E  E  E  E  E  E     E  E  E  E  E  E  E  E     E  E  E  E  E  E  E  E
e--------------------------|--------------------------|--3--3--3--3--3--3--3--3--|--3--3--3--3--3--3--3--3--|
B--------------------------|--0--0--0--0--0--0--0--0--|--------------------------|--0-----------------------|
G--0--0--0--0--0--0--0--0--|--0--0--0--0--0--0--0--0--|--0--0--0--0--0--0--0--0--|--------------------------|
D--------------------------|--------------------------|--------------------------|--------------------------|
A--------------------------|--------------------------|--------------------------|--------------------------|
E--3--3--3--3--3--3--3--3--|--3-----------------------|--------------------------|--3--3--3--3--3--3--3--3--|



   E  E  E  E  E  E  E  E      E  E  E  E  E  E  E  E     E  E  E  E  E  E  E  E
e---------------------------|--------------------------|--------------------------|
B--------0------------------|-----3--3-----------------|-----3--3--------------1--|
G--0--2------------------0--|--2-----------------------|--2-----------------------|
D---------------------------|--------------------------|--------------------------|
A---------------------------|--------------------0--0--|--0--0--0--0--------0--0--|
E--3--3--3--3---2--2--3--3--|--2--2--2--2--3--3--------|--1-----------1--1--------|


   |-3-|                        |-3-|
   E E E   E  E  E  E  E  E     E E E   E  E  E  E  E  E     E  E  E  E  E  E  E  E
e----------------------------|----------------------------|-----3--3------------------|
B--1-3-1---------------------|--1-3-1---------------------|--0------------------------|
G----------0-----------------|----------0--------------2--|---------------------------|
D----------------------------|--1-------------------------|---------------------------|
A----------------------------|----------3--3--2--2--0--0--|--------------0--0--2--2---|
E--0---0---0--0--0--0--0--0--|----------------------------|--3--3--3--3---------------|



   E  E  E  E  E  E  E  E     E   E  E  E  E  E  E   E
e-----3--3--------------3--|--2------0-----5-----5--10--|
B--------------------------|------3-----3-----3---------|
G--2-----------------2-----|----------------------------|
D--------------------------|--0-------------------------|
A--0--0--------0--0-----0--|----------------------------|
E--------0--0--------0-----|--2-------------------------|



   E  E   E  E  E  E  E  E     E  E  E  E  E  E  E  E     E  E    E  E  E  E  E  E
e---------7--------------5--|--5--3--3-----------------|---------10--------------8---|
B--1s-3---0-----------------|--------------------------|--1s-3----7------------------|
G---------------------------|--------------------------|--0--------------------------|
D--2s-4---------------------|--------2-----2-----2-----|--2--4-----------------------|
A--0--L---5--5--5--5--3-----|-----2-----2-----2-----2--|--3s-5----9--9--9--9--7------|
E---------------------------|--0-----------------------|-----------------------------|



   E  E  E  E  E  E  E  E     E  E   E  E  E  E  E  E     E  E  E  E  E  E  E  E     E  E   E  E  E  E  E  E
e--8--7--7-----------------|---------7--------------5--|--5--3--3------------------|-------10--------------8--|
B--------------------------|--1s-3---0-----------------|-----0---------------------|-1s-3---7-----------------|
G--------------------------|---------------------------|---------------------------|-0------------------------|
D--------------------------|--2s-4---------------------|---------------------------|-2--4---------------------|
A--------------------------|--0--L---5--5--5--5--3-----|------------2-----2-----2--|-3s-5---9--9--9--9--7-----|
E--5-----3--3--3--3--3--2--|---------------------------|--0--2--0---0--0--0--0--0--|--------------------------|



   E   E  E  E  E  E  E  E     E  E  E  E  E  E  E  E      W
e--8s--7--7-----------------|---------------------------|------||
B---------------------------|---------------------------|------||
G---------------------------|--0--0--0--0--0--0--0--0---|--0---||
D---------------------------|---------------------------|--0---||
A--5------------------------|---------------------------|--2---||
E---------3--3--3--3--3--3--|--3--3--3--3--3--3--3--3---|--3---||

Login or Register to remove this ad.

3 comments on Main Theme

yeah sooo i was playing this

5

yeah sooo i was playing this song the other day and i actually started crying.

Great

4

Nice Theme Phantasy Star 3 !

Great

4

Nice Theme Phantasy Star 3 !