Ads

Trinity Soul (Persona: Trinity Soul) Guitar Tab

Submitted: Oct 31, 2009 by Lost Melodies

4
Average: 4 (1 vote)
Download | Listen
Game: Persona: Trinity Soul
Composer(s): Taku Iwasaki
Style: Arrangement, Fingerstyle
Series: Megami Tensei

AutoScroll: Slow | Medium | Fast
                                 Trinity Soul                                   


Arranjed by Lost Melodies                                       Taku Iwasaki

3/4


     ^                ^                                                     
     H        Q       H        Q       E  E  E  E  E  E     E  E  H         
E||--1--------1----|--8--------5----|--6--5-----3--------|-----------------|
B||--1-------------|--5--------5----|--------6-----6-----|-----------------|
G||--2--------2----|--5-------------|--5-----5--------5--|-----------------|
D||--3-------------|--7-------------|--3-----3-----------|--3--------------|
A||----------------|----------------|--------------------|-----3--L--------|
E||----------------|----------------|--------------------|-----------------|


  ^                 ^                                                      
  Q    Q    Q       Q    Q    Q       E  E  E  E  E  E     Q    Q    Q     
--1---------1----|--8---------5----|--6--5-----3--------|-----------------|
--1--------------|--5---------5----|--------6-----6-----|--3----5----6----|
--2---------2----|--5----5---------|--5-----5--------5--|------------5----|
--3----3---------|--7--------------|--3-----3-----------|--3----3----3----|
-----------------|-----------------|--------------------|-----------------|
-----------------|-----------------|--------------------|-----------------|


   ^                   ^                  ^                   ^               
   Q     Q     Q       Q    Q    Q        Q     Q     Q       Q    Q    Q     
--12----------13----|--8---------5----|--12----------13----|--8---------8----|
--10----------------|--5---------5----|--10----------------|--5---------5----|
--10----------------|--5--------------|--10----------------|--5--------------|
--12----12----------|--7----7---------|--12----12----------|--7----7---------|
--------------------|-----------------|--------------------|-----------------|
--------------------|-----------------|--------------------|-----------------|


  ^                 ^                ^                 ^               
  Q    Q    Q       Q    H           E  Q    Q.        Q    Q    Q     
--8----6----5----|----------------|-----------------|--1---------1----|
--5--------------|--8----6--------|--5--3-----------|--1--------------|
--5--------------|--5-------------|--3-------5------|--2---------2----|
-----------------|--7-------------|--3--------------|--3----3---------|
-----------------|----------------|-----------------|-----------------|
-----------------|----------------|-----------------|-----------------|


  ^                                                         ^               
  Q    Q    Q       E  E  E  E  E  E     E  E  Q    Q       Q    Q    Q     
--8---------5----|--6--5-----3--------|------------------|--1---------1----|
--5---------5----|--------6-----6-----|------------------|--1--------------|
--5----5---------|--5-----5--------5--|------------------|--2---------2----|
--7--------------|--3-----3-----------|--3----------2----|--3----3---------|
-----------------|--------------------|-----5--3---------|-----------------|
-----------------|--------------------|------------------|-----------------|


  ^                                                         ^                 
  Q    Q    Q       E  E  E  E  E  E     Q    Q    Q        Q     Q     Q     
--8---------5----|--6--5-----3--------|-----------------|--12----------13----|
--5---------5----|--------6-----6-----|--3----5----6----|--10----------------|
--5----5---------|--5-----5--------5--|------------5----|--10----------------|
--7--------------|--3-----3-----------|--3----3----3----|--12----12----------|
-----------------|--------------------|-----------------|--------------------|
-----------------|--------------------|-----------------|--------------------|


  ^                  ^                   ^                 ^               
  Q    Q    Q        Q     Q     Q       Q    Q    Q       Q    Q    Q     
--8---------5----|--12----------13----|--8---------8----|--8----6----5----|
--5---------5----|--10----------------|--5---------5----|--5--------------|
--5--------------|--10----------------|--5--------------|--5--------------|
--7----7---------|--12----12----------|--7----7---------|-----------------|
-----------------|--------------------|-----------------|-----------------|
-----------------|--------------------|-----------------|-----------------|


  ^                   ^                 ^                 ^             
  E  E  Q    E  E     Q    Q    Q       Q    Q    Q       H.            
----------------8--|--8----6----5----|-----------------|--1------------|
--8--6--5----------|--5--------------|--8----6----5----|--1------------|
--5----------5-----|--5--------------|--5--------------|--2------------|
--7----------------|-----------------|--7--------------|--3------------|
-------------------|-----------------|-----------------|--3------------|
-------------------|-----------------|-----------------|--1------------|


                   ^                                      ^               
  H.               Q     Q    Q        Q     Q    Q       Q    Q    Q     
--L------------|--11---------------|--11----10----8----|--6--------------|
--L------------|---8---------------|---8---------------|--6--------------|
--L------------|---8----------8----|-------------------|------------7----|
--L------------|--------10---------|-------------------|-------8---------|
--L------------|-------------------|-------------------|-----------------|
--L------------|-------------------|-------------------|-----------------|


  ^                                                           ^             
  Q.     E   Q        Q     Q     Q        Q    Q.     E      H.            
--6------8--10----|--11----13----10----|--11----8---------|---8------------|
--6---------------|---8----------------|---------------8--|---8------------|
--7---------------|---8----------------|------------------|---8------------|
------------------|--------------------|------------------|--10------------|
------------------|--------------------|------------------|----------------|
------------------|--------------------|------------------|----------------|


                     ^                    ^                  ^             
  Q    Q    Q        Q     Q     Q        Q     Q    Q       H.            
--L---------8----|--11----13----10----|---8---------------|---------------|
--L----6---------|---8----------------|---8----11----8----|--6------------|
--L--------------|---8----------------|---8-----L---------|--5------------|
--L--------------|--------------------|--10-----L---------|--7------------|
-----------------|--------------------|-------------------|---------------|
-----------------|--------------------|-------------------|---------------|


                                                    ^                        
  E   Q.      Q        Q    Q     Q       Q    Q    E  E     Q    Q    Q     
--8--10------11----|--10----8-----6----|--3----1----1--0--|--L--------------|
-------------------|-------------------|------------1-----|-----------------|
-------------------|--------8----10----|--5----3----2-----|--L----2---------|
-------------10----|--10---------------|------------3-----|--L--------------|
-------------------|-------------------|------------------|------------0----|
-------------------|-------------------|------------------|-----------------|


  H.             
---------------||
---------------||
---------------||
---------------||
--L------------||
---------------||




Duration Legend
---------------
W - whole
H - half
Q - quarter
E - 8th
S - 16th
T - 32nd
X - 64th
. - note dotted
|-n-|  - n-tuplets


Tablature Legend
----------------
L - tied note
^ - brush up
v - brush down
Login or Register to remove this ad.

1 comment on Trinity Soul

awesome...but not sad enough

4

this is good!!!
din ever though anybody would post this up ~
but if you would've made it more nostalgic and sad
it would've been better
somehow it isn't ..sad enough haha