Ads

Will Power (Persona 5) Guitar Tab

Submitted: Jun 21, 2017 by ar4757

4
Average: 4 (2 votes)
Download | Listen
Game: Persona 5
Composer(s): Shoji Meguro
Style: Transcription

AutoScroll: Slow | Medium | Fast
Persona 5
Will Power
Composed by Shoji Meguro
Tabbed by ar4757
6/21/17

Optional Intro (Awakening)
e|-----------------------------------------------------------------|
B|-----------------------------------------------------------------|
G|-------------------------------------------------------------8---|
D|---5---5/7---7-----5---5/8---8-----5---5/7---7-----5---5/8---8---|
A|---5---5/7---7-----5---5/8---8-----5---5/7---7-----5---5/8---8---|
E|-----------------------------------------------------------------|

e|-----------------------------------------------------------------|
B|-----------------------------------------------------------------|
G|-----------------------------------------------------------------|
D|---5---5/7---7-----5---5/8---8-----5---5/7---7-----5---5/11------|
A|---5---5/7---7-----5---5/8---8-----5---5/7---7-----5---5/11------|
E|-----------------------------------------------------------------|
____________________________________________________________________

e|----------------------------------------------------------|
B|----------------------------------------------------------|
G|----------------------------------------------------------|  2x
D|---5-----7-----8----------5-----7-----8--------13---------|
A|---5-----7-----8----------5-----7-----8--------13---------|
E|----------------------------------------------------------|

e|----------------------------------------------------------------------------------------------|
B|----------------------------------------------------------------------------------------------|
G|---7--7--7--7--9--9--9--10-----------10-10-10----7--7--7--7--9--9--9--10----10-12-----12------|
D|---5--5--5--5--7--7--7--8------------8--8--8-----5--5--5--5--7--7--7--8-----8--12-----12------|
A|---5--5--5--5--7--7--7--8------------8--8--8-----5--5--5--5--7--7--7--8-----8--10-----10------|
E|----------------------------------------------------------------------------------------------|

e|-------------------------------------------------|
B|-------------------------------------------------|
G|-------7-----7---5---5---------------------------|
D|---5---------------------8-----8---7---7---5-----|
A|-------------------------------------------------|
E|-------------------------------------------------|

e|-------------------------------------------------------------|
B|-------------6-----------------------------------------------|
G|-------5/7---------5---3/5---------7---------------7---7-----|
D|---5-------------------------8---------7---7---5-------------|
A|-------------------------------------------------------------|
E|-------------------------------------------------------------|

e|-----------------------------------------------------|
B|---6----6----6-------6----6----3---6---8---8/10------|
G|-----------------------------------------------------|
D|-----------------------------------------------------|
A|-----------------------------------------------------|
E|-----------------------------------------------------|

e|---6----6----6-------6----6----6/8---5-------\3---3-----|
B|--------------------------------------------------------|
G|--------------------------------------------------------|
D|--------------------------------------------------------|
A|--------------------------------------------------------|
E|--------------------------------------------------------|

e|----------------------------------------------------------------------------------------------|
B|----------------------------------------------------------------------------------------------|
G|---7--7--7--7--9--9--9--10-----------10-10-10----7--7--7--7--9--9--9--10----10-12-----12------|  4x
D|---5--5--5--5--7--7--7--8------------8--8--8-----5--5--5--5--7--7--7--8-----8--12-----12------|
A|---5--5--5--5--7--7--7--8------------8--8--8-----5--5--5--5--7--7--7--8-----8--10-----10------|
E|----------------------------------------------------------------------------------------------|

e|-------------------------------------------------|
B|-------------------------------------------------|
G|-------7-----7---5---5---------------------------|
D|---5---------------------8-----8---7---7---5-----|
A|-------------------------------------------------|
E|-------------------------------------------------|

e|-------------------------------------------------------------|
B|-------------6-----------------------------------------------|
G|-------5/7---------5---3/5---------7---------------7---7-----|
D|---5-------------------------8---------7---7---5-------------|
A|-------------------------------------------------------------|
E|-------------------------------------------------------------|

e|-----------------------------------------------------|
B|---6----6----6-------6----6----3---6---8---8/10------|
G|-----------------------------------------------------|
D|-----------------------------------------------------|
A|-----------------------------------------------------|
E|-----------------------------------------------------|

                                                    *
e|---6----6----6-------6----6----6/8---5-------\3---3-----|
B|--------------------------------------------------------|
G|--------------------------------------------------------|
D|--------------------------------------------------------|
A|--------------------------------------------------------|
E|--------------------------------------------------------|

     *
e|---------13----11p10----------------------10------------13----11p10------|
B|---11----------------13------11p10--11h13---------11----------------13---|
G|-------------------------------------------------------------------------| * - Notes play at same time
D|-------------------------------------------------------------------------|
A|-------------------------------------------------------------------------|
E|-------------------------------------------------------------------------|

e|-------------------------------------------------------------------|
B|---13----13b15r13----10----------11----11h13--11-13--13b15r13b15---|
G|---------------------------10--------------------------------------|
D|-------------------------------------------------------------------|
A|-------------------------------------------------------------------|
E|-------------------------------------------------------------------|

e|---------13----13/15------17p15-15h17------17b18------13----15---------------|
B|---11-------------------------------------------------------------13b15r13---|
G|-----------------------------------------------------------------------------|
D|-----------------------------------------------------------------------------|
A|-----------------------------------------------------------------------------|
E|-----------------------------------------------------------------------------|

e|---------------------------------------13----13----13/15---|
B|-------------------------13b15r13--------------------------|
G|---10----12--------12--------------------------------------|
D|-----------------------------------------------------------|
A|-----------------------------------------------------------|
E|-----------------------------------------------------------|

e|----------------------------------------------------------------------------------------------|
B|----------------------------------------------------------------------------------------------|
G|---7--7--7--7--9--9--9--10-----------10-10-10----7--7--7--7--9--9--9--10----10-12-----12------|  4x
D|---5--5--5--5--7--7--7--8------------8--8--8-----5--5--5--5--7--7--7--8-----8--12-----12------|
A|---5--5--5--5--7--7--7--8------------8--8--8-----5--5--5--5--7--7--7--8-----8--10-----10------|
E|----------------------------------------------------------------------------------------------|

Login or Register to remove this ad.