Layer Cake (Persona 5) Guitar Tab

Submitted: Jan 20, 2019 by thunderbulb (Last updated: Feb 11, 2019)

5
Average: 5 (1 vote)
Download | No audio :(
Game: Persona 5
Composer(s): Shoji Meguro
Style: Transcription

AutoScroll: Slow | Medium | Fast
Persona 5 - Layer Cake

Verse - A B A C
  A				B
e|----------------------------|----------------------------|
B|------10-8-7-----7-----7/9~-|-10---7---9/10---7----------|
G|--6-7--------6-7---6-7------|----9---7------9---7-9\\6---|
D|----------------------------|----------------------------|
A|----------------------------|----------------------------|
E|----------------------------|----------------------------|

  C
e|----8--------------------|
B|-10-----7-10-10---7\\2---|
G|------9---------9--------|
D|-------------------------|
A|-------------------------|
E|-------------------------|

Chorus - A B A B
  A				    B
e|--------------------------------|------------------------------------------|
B|----14-14-12----12----10--------|----14-14-15----12----10------------------|
G|-11----------14----11----9-9h11-|-11----------14----11----9\\6-------------|
D|--------------------------------|------------------------------------------|
A|--------------------------------|------------------------------------------|
E|--------------------------------|------------------------------------------|
Login or Register to remove this ad.

1 comment on Layer Cake

Small correction part C the 8

Small correction part C the 8 (c) on the high string should be a 7 (b)