Ads

Layer Cake (Persona 5) Bass Tab

Submitted: May 29, 2017 by Zetsword

0
Download | Listen
Game: Persona 5
Composer(s): Shoji Meguro
Style: Transcription

AutoScroll: Slow | Medium | Fast
Persona 5
Layer Cake
Shoji Meguro
Zetsword
5/29/17

G-4---4--2----4-------------------------------------------|
D---------------------------------------------------------|
A-----------2---------------------------------------------|	Eerie Intro
E---------------------------------------------------------|

G--4-4-2---2h4-----------2-2---2-2h4-4-2---2h4------------|
D--------4-----4-4-4-2-4-----4-----------4-----4-4-4-2-4--|	Verse
A---------------------------------------------------------|
E---------------------------------------------------------|

G-2-2---2-2--9-9-7---7h9-----------7-7---4-4-2---2h4------|
D-----4------------9-----9-9-9-7-9-----9-------4-----4-4-4|
A---------------------------------------------------------|
E---------------------------------------------------------|

G-----2-2---2-2-------------------------------------------|
D-2-4-----4-----------------------------------------------|
A---------------------------------------------------------|
E---------------------------------------------------------|

G------------------------------------7--------------7-----|
D---2----4----5----7-----9~--9p7-9-9---9p7--9p7-9-9---9p7-|     Chorus
A---------------------------------------------------------|
E-0----2----3----5----5-----------------------------------|
Login or Register to remove this ad.