Ads

Last Surprise (Intro) (Persona 5) Guitar Tab

Submitted: Feb 23, 2019 by MarkExo (Last updated: Apr 12, 2019)

5
Average: 5 (1 vote)
Download | Listen
Game: Persona 5
Composer(s): Shoji Meguro
Style: Alternate picking

AutoScroll: Slow | Medium | Fast
[Intro]
  you can slide the 8/5 if you want 
                     ^
e|-12h13p12-10-8h10p8-5--3-5---12h13p12-10-8h10p8-5--4-----------------------|
B|---------------------------------------------------------------------------|
G|---------------------------------------------------------------------------|
D|---------------------------------------------------------------------------|
A|---------------------------------------------------------------------------|
E|---------------------------------------------------------------------------|
                                         
e|-12h13p12-10-8h10p8-5--3-5----12h13p12-10-8-10-5-4-3-----------------------|
B|---------------------------------------------------------------------------|
G|---------------------------------------------------------------------------|
D|---------------------------------------------------------------------------|
A|---------------------------------------------------------------------------|
E|---------------------------------------------------------------------------|
                      
e|-12h13p12-10-8h10p8-5--3-5---12h13p12-10-8h10p8-5--4-----------------------|
B|---------------------------------------------------------------------------|
G|---------------------------------------------------------------------------|
D|---------------------------------------------------------------------------|
A|---------------------------------------------------------------------------|
E|---------------------------------------------------------------------------|
                                         
e|-12h13p12-10-8h10p8-5--3-5----12h13p12-10-8-10-----------------------------|
B|---------------------------------------------------------------------------|
G|---------------------------------------------------------------------------|
D|---------------------------------------------------------------------------|
A|---------------------------------------------------------------------------|
E|-----------------------------------------------5-4-3-----------------------|
                                                 ^ that's supposed to be done on a bass but low e works too

The trick to making this sound like the original is to play stuff like this (12h13p12-10) in one smooth motion
like its being played on a violin. The only part that should have distinct defined notes should be (-3-5) and
(-8-10-5-4-3-) 
Login or Register to remove this ad.