Ads

have a short rest (Persona 5) Guitar Tab

Submitted: Jul 29, 2021 by heatagni (Last updated: Aug 07, 2021)

5
Average: 5 (1 vote)
Download | Listen
Game: Persona 5
Composer(s): Shoji Meguro
Style: Transcription

AutoScroll: Slow | Medium | Fast
(/) Slide Up  (\) Slide Down  (h) Hammer On  (p) Pull Off  (b) Bend (r) Release (v) Vibrato

part 1 (0:00-0:28)

E|------------------------------------------------------------------------------------------------------------
B|--------------8-------------------------------------------------------------------8-------------------------
G|----9----7---------------9----7-----------------------------------------9----7---------------9----7---------
D|-------------------10--------------7---------7----9----10----12------------------------10--------------7----
A|------------------------------------------------------------------------------------------------------------
E|------------------------------------------------------------------------------------------------------------

part 2 (0:51-1:16)

E|------------------------------------------------------------------------------------------------------------
B|--------------8-------------------------------------------------------------------8----10-------------------
G|----9----7---------------9----7-----------------------------------------9----7---------------9----7---------
D|-------------------10--------------7---------7----9----10----12----------------------------------------7----
A|------------------------------------------------------------------------------------------------------------
E|------------------------------------------------------------------------------------------------------------

then the song repeats
			
Login or Register to remove this ad.