Butterfly Kiss (Clinic Theme) (Persona 5) Guitar Tab

Submitted: Aug 11, 2018 by bradyg2017 (Last updated: Aug 19, 2018)

3.5
Average: 3.5 (2 votes)
Download | Listen
Game: Persona 5
Composer(s): Shoji Meguro
Style: Alternate picking, Fingerstyle

This song is also called Tae Takemi's Theme

AutoScroll: Slow | Medium | Fast
Game's Name: Persona 5
Song Name: Butterfly Kiss
Composer: Shoji Meguro
Tuning: Standard
Date of Tabbing: 8/11/18
Tabber: Bradyg2017
Link to Song: https://www.youtube.com/watch?v=cC7zsHFUhtY&t=53s

First tab I have ever done by ear! I personally add additional slides and string bends.
Make changes based on preferences and style of play. Definitely not a perfect tab by any means. 

e|-----------------------------------------------------------------------------|
a|-----------------------------------------------------------------------------|
d|-7-6-7--7-6-7--7-6-4--6--7-6-7-----------------------------------------------| x2
g|-7-6-7--7-6-7--7-6-4--6--7-6-7-----------------------------------------------|
b|-----------------------------------------------------------------------------|
e|-----------------------------------------------------------------------------|

e|-----------------------------------------------------------------------------|
a|--------------14-16----------------------------------------------------------|
d|-7-9-11-12-14-------9-15-14-12-14-12-9-15-14-12-14-11-(11)-12-15-14-12-14-12-| x2
g|-----------------------------------------------------------------------------|
b|-----------------------------------------------------------------------------|
e|-----------------------------------------------------------------------------|

e|-----------------------------------------------------------------------------|
a|-----5/7/5--3-----5/7/5---3-3-2-----5/7-7--5/7/10--5/7/5--3------------------|
d|-4-7-------4---4-7-------4------2-4------------------------------------------|
g|-----------------------------------------------------------------------------|
b|-----------------------------------------------------------------------------|
e|-----------------------------------------------------------------------------|


e|-----------------------------------------------------------------------------|
a|-----5/7/5--3-----5/7/5---3-3-2-----5/7-7--8/10/12--5/7/5--3-----------------|
d|-4-7-------4---4-7-------4------2-4------------------------------------------| (Song Repeats)
g|-----------------------------------------------------------------------------|      
b|-----------------------------------------------------------------------------|
e|-----------------------------------------------------------------------------|
Login or Register to remove this ad.

2 comments on Butterfly Kiss (Clinic Theme)

Have you actually seen a tab before

2

Thanks for tabbing this! Like you, I'm clinically fucking retarded and don't understand why people write tabs the right way up. I mean, it's EADGBE, right? It should read that way too!

fucking hell an upside-down tab
to add insult to injury most all the notes are correct
i'm going to learn this then kill myself out of anger

Yikes

Listen here Twigg, I am gonna fix this just for you, because I am just that nice. But watch your profanity man, making me feel bad and such. Beginner's mistake bro, damn.