Blooming Villain (Persona 5) Ukulele Tab

Submitted: Jan 10, 2019 by calc478 (Last updated: Jan 25, 2019)

0
Download | Listen
Game: Persona 5
Composer(s): Shoji Meguro
Style: Arrangement

AutoScroll: Slow | Medium | Fast
M: Palm mute
A ||-4--4--4--4----------------|-----10-11-11-------x--x----|
E ||o4--4--4--4----------------|--------------------x--x----|
C ||o1--1--1--1----------------|--------------------x--x----|
G ||---------------------------|--------------------x--x----|


--4--4--4--4----------------|--------------------x--x---|||
--4--4--4--4--9-----4-------|-----3--4--4--------x--x--o|||
--1--1--1--1----------------|--------------------x--x--o|||
----------------------------|--------------------x--x---|||


----4-----------------4L---------|--4-------------------------|
o------------2-------------------|--------2-------------------|
o1--------1--------1-------------|-----1--------4-----6-------|
---------------------------------|----------------------------|


-----4-----------------4L---|--4-------------------------|
--------------2-------------|----------------------------|
--1--------1--------1-------|-----1--4--1--2-------------|
----------------------------|----------------------------|


-----4-----------------4L---|--4-------------------------|
--------------2-------------|--------2-------------------|
--1--------1--------1-------|-----1--------4-----6-------|
----------------------------|----------------------------|


-----4----------------------|---------------------------||
--------------2-------------|--------------------------o||
--1--------1----------------|--------------------------o||
--------------------6--9L---|--9--6--7-----4-----6--7---||


----------------------------|
--4M-4M-4M-4M-4M-4M-4M-4M---|
--1M-1M-1M-1M-1M-1M-1M-1M---|
----------------------------|


----------------------------------------------------|
--4M----4M----9-----------7-----------4M----4M------|
--1M----1M----6-----------4-----------1M----1M------|
----------------------------------------------------|


----------------------------|----------------------------|
--4M-4M-4M-4M-4M-4M-4--7----|--4M-4M-4M-4M-4M-4M-4M-4M---|
--1M-1M-1M-1M-1M-1M-1--4----|--1M-1M-1M-1M-1M-1M-1M-1M---|
----------------------------|----------------------------|


----------------------------------------------------|
--4M----4M----9-----------7-----------4M----4M------|
--1M----1M----6-----------4-----------1M----1M------|
----------------------------------------------------|


----------------------------|----------------------------|
--4M-4M-4M-4M-4M-4M-4M-4M---|--4M-4M-4M-4M-4M-4M-4M-4M---|
--1M-1M-1M-1M-1M-1M-1M-1M---|--1M-1M-1M-1M-1M-1M-1M-1M---|
----------------------------|----------------------------|


----------------------------------------------------|
--4M----4M----9-----------7-----------4M----4M------|
--1M----1M----6-----------4-----------1M----1M------|
----------------------------------------------------|


----------------------------|----------------------------|
--4M-4M-4M-4M-4M-4M-4--7----|--4M-4M-4M-4M-4M-4M-4M-4M---|
--1M-1M-1M-1M-1M-1M-1--4----|--1M-1M-1M-1M-1M-1M-1M-1M---|
----------------------------|----------------------------|


----------------------------------------------------|----------------|
--4M----4M----9-----------7-----------4M----4M------|--4M------------|
--1M----1M----6-----------4-----------1M----1M------|--1M----1--3----|
----------------------------------------------------|----------------|


----------------------------|----------------|----------|
-----4--4-----------4--7----|--7-----7--9----|--11L11---|
--4-------------------------|----------------|----------|
----------------------------|----------------|----------|


----------------------------|
--9-----------------9-------|
-----------------------8----|
----------------------------|


----------------------------------------------------------------------------|
-----------4--------4-----------------------------------5--------4--5--4----|
--1-------------------------------------------------------------------------|
----------------------------------------------------------------------------|


----------------------------|----------|----------------|
--2-------------------------|----------|--4-------------|
--------------------4--3----|--4--6----|--------1--3----|
----------------------------|----------|----------------|


----------------------------|----------------|-------|
-----4--4-----------4--7----|--7-----7--9----|--11---|
--4-------------------------|----------------|-------|
----------------------------|----------------|-------|


----------------------------|----------------------------|
--12----------12-11-9-------|--4--------2--------7-------|
-----------------------11---|----------------------------|
----------------------------|----------------------------|


----------------------------|----------------------------|----------------||
--4--------------------2----|--4--------2--------7-------|--4-------------||
--------------------4-------|----------------------------|----------------||
----------------------------|----------------------------|----------------||
Login or Register to remove this ad.