Ads

Behind the Mask (Persona 5) Guitar Tab

Submitted: Jun 30, 2017 by Eileymao (Last updated: Jul 01, 2017)

4.5
Average: 4.5 (2 votes)
Download | Listen
Game: Persona 5
Composer(s): Shoji Meguro
Style: Transcription

AutoScroll: Slow | Medium | Fast
Persona 5 - Beneath the mask, composed by Shoji Meguro



e|----------------------------------------------------------------------------------------|
B|----------1--3------------1--3--4--3------------1--3--4--3------------------1-----------|
G|----0--3------------0--3------------------0--3--------------0--3------0--3-----4/3/2----|
D|----------------------------------------------------------------------------------------|
A|----------------------------------------------------------------------------------------|
E|----------------------------------------------------------------------------------------|

e|----------------------------------------------------------------------------------------|
B|----------1--3------------1--3--4--3------------1--3--4--3------------------1-----------|
G|----0--3------------0--3------------------0--3--------------0--3------0--3-----4/3/2----|
D|----------------------------------------------------------------------------------------|
A|----------------------------------------------------------------------------------------|
E|----------------------------------------------------------------------------------------|

e|-------------8--8---------------6--5----------------1--3--------------------------------|
B|----8--6--8------------8--6--8-------------3--1--3--------1--------1--3--4--3-----------|
G|-------------------------------------------------------------0--3-----------------------|
D|----------------------------------------------------------------------------------------|
A|----------------------------------------------------------------------------------------|
E|----------------------------------------------------------------------------------------|

e|-------------8--8---------------6--5----------------1--3--------------------------------|
B|----8--6--8------------8--6--8-------------3--1--3--------1--------1--------------------|
G|-------------------------------------------------------------0--3-----4/3/2-------------|
D|----------------------------------------------------------------------------------------|
A|----------------------------------------------------------------------------------------|
E|----------------------------------------------------------------------------------------|


3:01
e|----1--3-------------------6--5-------3--1--3------------------------------|
B|-------------1----------1-------------------------1----------1--3--4--3----|
G|----------3----------3-------------------------3-------0--3----------------|
D|---------------------------------------------------------------------------|
A|---------------------------------------------------------------------------|
E|---------------------------------------------------------------------------|

e|----1--1--3--2--3-----3--3--3--8--6--5------1--3----------------1----------|
B|-------------------------------------------------------------1-----3-------|
G|--------------------------------------------------3--3----3----------------|
D|---------------------------------------------------------------------------|
A|---------------------------------------------------------------------------|
E|---------------------------------------------------------------------------|
Login or Register to remove this ad.

1 comment on Behind the Mask

nice

nice