Maya Theme (Persona 2: Innocent Sin) Guitar Tab

Submitted: Dec 27, 2011 by Hitoshura89

5
Average: 5 (1 vote)
Download | Listen
Game: Persona 2: Innocent Sin
Composer(s): Shoji Meguro, Kenichi Tsuchiya, Toshiki Konishi, Masaki Kurokawa, Ryota Koduka, Atsushi Kitajoh
Style: Transcription
Series: Megami Tensei

AutoScroll: Slow | Medium | Fast
Maya's Theme
Game: Shin Megami Tensei: Persona 2 Innocent Sin Portable
Composer: Kenichi Tsuchiya
Tabbed by: Hitoshura89
Tuning: E Standard
12-21-11

Intro

E|---------------------------------------------------------------------------------------|
B|---------------------------------------------------------------------------------------|
G|--9-8-6-----6-9-8--6----6-9-8-6-----------6-9-8-6----6-9-8-6----6-9-8-6----6-----------|
D|---------9-----------9----------9--\6--9----------9----------9----------9--------------|
A|---------------------------------------------------------------------------------------|
E|---------------------------------------------------------------------------------------|


E|--------------------------------------------------------------------------|
B|--------------------------------------------------------------------------|
G|----6-9-8-6----6-9-8-6---6-9-8-6----------6-9-8-6----6-9-8-6---6----------|
D|--9----------9---------9---------9--\6--9----------9---------9------------|
A|--------------------------------------------------------------------------|
E|--------------------------------------------------------------------------|
                                                                    

E|----------------------------------------------------------------------------------|
B|--9---------9PB-9---------------9---------------9\10-10\12-9-7--------------------|
G|----11-9-11-------11-9-11-9--------11-9-11-9-11----------------9------------------|
D|----------------------------11~---------------------------------------------------|
A|----------------------------------------------------------------------------------|
E|----------------------------------------------------------------------------------|



E|----------------------------------------------------------------------------|
B|--9---------9PB-9---------------9-------------------------------------------|
G|----11-9-11-------11-9-11-9-------11-9-11-9----9----------------------------|
D|----------------------------11~-------------11---11~~\----------------------|
A|----------------------------------------------------------------------------|
E|----------------------------------------------------------------------------|




E|----------------------------------------------------------------------------|
B|----------------------------------------------------------------------------|
G|----6-9-8-6----6-9-8-6----6-9-8-6-------------------------------------------|
D|--9----------9----------9----------9--\6--4-6-4----4-6-4--------------------|
A|------------------------------------------------7~--------7-4~--------------|
E|----------------------------------------------------------------------------|



E|----------------------------------------------------------------------------|
B|------------------------------------------7-9---7---------------------------|
G|----6-9-8-6----6-9-8-6----6-9-8-6----6--9-----6---8----6~~\-----------------|
D|--9----------9----------9----------9----------------9-----------------------|
A|----------------------------------------------------------------------------|
E|----------------------------------------------------------------------------|
Login or Register to remove this ad.

2 comments on Maya Theme

Thanks for the tab. Have you

Thanks for the tab. Have you ever thought of making tabs for the Main Theme A for this game?

Would you happen to have the

Would you happen to have the Midi version, or a version that would work properly on gp5? :c