Salty Sailor (World of Warcraft) Guitar Tab

Submitted: Sep 14, 2008 by Kabukibear (Last updated: Oct 31, 2009)

5
Average: 5 (5 votes)
Download | Listen
Game: World of Warcraft
Composer(s): David Arkenstone, Derek Duke, Jason Hayes
Style: Arrangement, Fingerstyle

AutoScroll: Slow | Medium | Fast
Salty Sailor                                   
~World of Warcraft~ (Taverns of Azeroth)
Composed by: David Arkenstone
Arranged by: Justin Lincoln

Playing Instructions:
  Play until you reach D.S. al Coda. Go back to Segno. Play until you
  reach Da Coda. Go to Coda. Play to the end.


     E  S E  S E  S E.     E  S E  S E  S E.     E  S E  S E  S E.   
E||--0--0-0--0-0--0-0---|--0--0-0--0-0--0-0---|--0----0---------0---|
B||---------------------|---------------------|------------3--------|
G||--2--2-2--2-2--2-2---|--2--2-2--2-2--2-2---|--2--2----2----2-----|
D||---------------------|---------------------|---------------------|
A||--0--------------0---|--0------------------|--0--------------0---|
E||------------3--------|------------0--------|------------3--------|

                          Segno
  E  S E  S E  S E.       E  S E  S S S S E.     E  S E  S S S S S S S  
--0--0-0--0----------||---0-------------------|--0-------0-3-5-7-5-3-2-|
------------0--0-0---||-----------3-1-0-------|------------------------|
--2--2-2--2----------||*-----2-2--------0-2---|-----2-2----------------|
------------2--2-2---||*----------------------|------------------------|
--0------------------||---0---------------0---|--0---------------------|
------------0--------||-------------3---------|------------0-----------|


  E  S E  S S S S E.     S S S S S S E  S S S S    E  S E  S S S S E.   
--0-------------------|-------------------------|--0-------0-----------|
----------3-1-0-------|----0-1-3-1-0--------1-3-|------------3-1-0-----|
-----2-2--------0-2---|--2-----------2----------|-----2-2----------2---|
----------------------|-----------------2-2-----|----------------------|
--0---------------0---|--------------0----------|--0---------------0---|
------------3---------|--1-----3----------------|------------3---------|


  E  S E  S S S S S S S    E  S E  S S S S E.     S S S S S S Q.        
--0-------0-2-3-5-3-2---|--0-------------------|----------------------||
----------------------3-|----------3-1-0-------|------1-3-1-0---------||
-----2-2----------------|-----2-2--------0-2---|----2---------2------*||
------------0-----------|----------------------|--3------------------*||
--0---------------------|--0---------------0---|--------------0-------||
------------------------|------------3---------|--1-----3-------------||


  S S S S S S S S S E.     S S S S S S Q.        S S S S S S S S S S S S  
------------------------|---------------------|------------------------0-|
------------0-1-0-1-----|--3-1-3-1-0----------|------------0-1---1-1-3---|
--0---0-0-2---------2---|------------0-2------|--0---0-0-2-----0---------|
----0-------------------|---------------------|----0---------------------|
--------------0---------|--------------0------|--------------3-------L-3-|
--3-------L-3-----------|--3-----3------------|--3-------L-3-------------|


  S S S S S S E.  S S S    S S S S S S S S S E.     S S S S S S Q.      
--1-0-1-0---------------|------------------------|---------------------|
----------3-1-3---1-0---|------------0-1-0-1-----|--3-1-3-1-0----------|
----------------------2-|--0---0-0-2---------2---|------------0-2------|
------------------0-----|----0-------------------|---------------------|
------------------------|--------------0---------|--------------0------|
--1-----1-----3---------|--3-------L-3-----------|--3-------L-3--------|

                                        Da Coda
  S S S S S S S S S S S S    S S S S S S E.  E.     S S S S S S S S S S S S  
--1-0-1-0-----------------|----------------------|--7---7-5---0-----0-----0-|
----------1---3---3-0-----|----0-1-3-1-3-0-------|--------------------------|
------------0---0-----2-0-|--2-------------------|--------------------------|
--------------------------|----------------------|----7-----7-----7-----7---|
--------------------------|----------------------|--0-----0-----0-----0-----|
--1-----------3-----------|--1-----------0---0---|--------------------------|


  S S S S S S S S S S S S    S S S S S S S S S S S S  
------0-5---0-3-----------|------0-5---0-----0-----0-|
------------------3-----3-|--------------------------|
----2-----2-----0-----0---|----2-----2-----2-----2---|
--------------------------|--------------------------|
--0-----0-----------------|--0-----0-----0-----0-----|
--------------3-----3-----|--------------------------|

              D.S. al Coda   Coda
  S S S S S S S S S S S S    E  S S S S E.  E.     E  S S S S E.  E.   
------0-5---0-3---0-------|-----0-0---0-----0---|--0--0-0-------------|
--------------------0---0-|---------3---3-------|---------3-1-0-------|
----2-----2-----0-----0---|--2----------0---2---|--2------------------|
--------------------------|---------------------|-------------2-------|
--0-----0-----------------|--0--------------0---|--0------L-0---------|
--------------0-----0-----|-------------3-------|-------------0---0---|


  E  S S S S E.  E.     E.  E.  Q.        E  S S S S E.  E.   
-----0-0---0-----0---|----------0------|-----0-0---0-----0---|
---------3---3-------|--1---3----------|---------3---3-------|
--2----------0---2---|------0---2------|--2----------0---2---|
---------------------|--3--------------|---------------------|
--0--------------0---|----------0------|--0--------------0---|
-------------3-------|--1---3----------|-------------3-------|


  E.  S S S Q.        E  S S S S E.  E.     E.  E.  Q.      
--0---L------------|-----0-0---0-----0---|----------0------|
--------1-0--------|---------3---3-------|--1---3----------|
--2---------2------|--2----------0---2---|------0---2------|
------------0------|---------------------|--3--------------|
--0----------------|--0--------------0---|----------0------|
-------------------|-------------3-------|--1---3----------|


  E  S S S S E.  E.     E.  S S S E.  E.     E  S S S S E.  E.   
---------------------|--------------------|---------------------|
-----5-5-3-5-3---5---|--5---L-3-1-0-------|-----5-5-3-5-3---5---|
--2--5-5-4-5-4---5---|--5---L-------------|--2--5-5-4-5-4---5---|
---------------------|------------2-------|---------------------|
--0--------------0---|--0-----------------|--0--------------0---|
-------------3-------|------------0---0---|-------------3-------|


  E.  E.  Q.        E  S S S S E.  E.     E.  S S S Q.      
-----------------|---------------------|-------------------|
--1---3---5------|-----5-5-3-5-3---5---|--5---L------------|
--2---4---5------|--2--5-5-4-5-4---5---|--5---L-5-4-2------|
-----------------|---------------------|------------0------|
----------0------|--0--------------0---|--0----------------|
--1---3----------|-------------3-------|-------------------|


  E  S S S S E.  E.     E.  E.  Q.        E.  E.  Q.        E.  E.  E.  S S S  
---------------------|-----------------|----------0------|----------0---------|
-----5-5-3-5-3---5---|--1---3---5------|--1---3----------|--1---3-------1-0-1-|
--2--5-5-4-5-4---5---|--2---4---5------|------0---2------|------0---2---------|
---------------------|-----------------|--3--------------|--3-----------------|
--0--------------0---|----------0------|----------0------|----------0---------|
-------------3-------|--1---3----------|--1---3----------|--1---3-------------|


  H.             
---------------||
---------------||
--2------------||
--2------------||
--0------------||
---------------||




Duration Legend
---------------
W - whole
H - half
Q - quarter
E - 8th
S - 16th
T - 32nd
X - 64th
. - note dotted
|-n-|  - n-tuplets
Login or Register to remove this ad.

7 comments on Salty Sailor

Just a really simple

Just a really simple arrangement. It's 3am and I'm too tired to tweak this much more. I may try to smooth out the rough edges later on but for now I just wanted to get it done. XP

Lol, I never would have

Lol, I never would have guessed this is from WoW. ^^

Yeah it's from the new

Yeah it's from the new series of tavern themes that they've just come out with. I saw a youtube video of the guy performing one of them with his troupe and finally managed to track down the cd that had them.

Hahah This is great

5

Hahah This is great Kabuki!
WoW music tabbed = gggggggggg

I love all your work

I love all your work Kabukibear, and this was a great tab.
I just dont understand why you chose to tab this one?
My favourite tavern theme is the Lion's Pride theme :P
Please continue tabbing WoW songs :D

Because it was the easiest

Because it was the easiest of the bunch to arrange quickly. It was late and I didn't really feel like tabbing anything but wanted to get something new out there.

Awesome. I'm surprised this

5

Awesome. I'm surprised this is from WoW as well.