Confession (Tokimeki Memorial) Guitar Tab

Submitted: Oct 28, 2007 by Kabukibear (Last updated: Sep 20, 2009)

4.923075
Average: 4.9 (13 votes)
Download | Listen
Game: Tokimeki Memorial
Composer(s): Konami Kukeiha Club
Style: Arrangement, Fingerstyle, Natural harmonics

AutoScroll: Slow | Medium | Fast
Confession                                    
~Tokimeki Memorial Piano Collections~
Composed by: Konami Kukeiha Club
Arranged by: Justin Lincoln


Slowly 
                    
                                                   ^                   
     H        Q    E  E     Q    Q    Q    Q       H.           E  E   
E||----------------------|-------0--------------|---------------------|
B||-------------------0--|--2---------3----0----|--2---------------0--|
G||----------------2-----|-------2----2---------|--4------------2-----|
D||----------------------|--2--------------2----|--2------------------|
A||----------------------|--0----4--------------|--0------------------|
E||----------------------|------------2----4----|---------------------|


  Q    Q    E  E  E  E     E  E  E  E  Q    E  E     Q    E  E  Q    E  E   
-------0----1--0--------|--------------0-------0--|--2----2----------------|
--2---------------3-----|--2-----0--2-------3-----|----------3--0----2--3--|
-------2----2--0-----2--|-------------------------|--2----2-----1----1-----|
--2---------0-----3-----|-----2-------------------|--0---------------------|
--0----4----------------|--0----------------------|------------------------|
------------------------|-------------------------|-------------0----------|


                                                   ^                    
  Q    E  E  E  E  E  E     Q    Q    Q    Q       H        Q    E  E   
--0----0-----------------|----------------------|----------------------|
----------2--------0--2--|--3----2----0---------|--2--------0-------0--|
--1----------2-----------|-----------------2----|--2--------1----2-----|
----------------2--------|--4----2----0---------|--4--------2----------|
--4----2-----------------|--2---------2---------|----------------------|
-------------2-----------|----------------------|--0-------------------|


  E  E  Q    Q    E  E     E  E  E  E  Q    E  E     Q    Q    E  E  E  E   
--------0---------------|-------------------------|-------0----1--0--------|
--2----------3----0-----|--2--------0--2-------0--|--2---------------3-----|
--------2----2----------|--------2----------2-----|-------2----2--0-----2--|
-----2---------------2--|-----2--L----------------|--2---------0-----3-----|
--0-----4---------------|--0----------------------|--0----4----------------|
-------------2----4-----|-------------------------|------------------------|


  ^                        ^               ^                                 
  Q    E  E  Q    E  E     Q    E  E  Q    E  E     E  E  E  E  E  E  E  E   
-------------0-------0--|--2-------2--2----4--5--|--0--------5--L--0--------|
--2----0--2-------3-----|--3----------3----5-----|-----2--------------2-----|
--2---------------------|--2---------------4-----|--2-----2--------------2--|
--2---------------------|--0---------------------|--------------------2-----|
--0---------------------|-------4-----2----------|--------------------------|
------------------------|------------------0-----|--2-----------------------|


        ^                                                                     
  E  E  Q    E  E  E  E     E  E  E  E  Q.     E     E  E  E  E  E  E  E  E   
--------2----0-----------|---------------------0--|--2--------5--4-----0--7--|
--0-----3----------0--2--|-----------0--2---------|--------3--------0--------|
--------2-------1--------|--2-----2---------------|-----2--------------------|
-----4--0----2-----------|-----2------------------|--0-----4-----2-----6-----|
--5----------------------|--0---------------------|--------------------------|
-------------------0-----|------------------------|--------------------------|


                                                                   ^           
  E  E  Q.     E  E  E     E  E  E  E  E  E  E  E     E  E  Q      Q    E  E   
--5--4---------------0--|--2--------5--4-----0--7--|--5--4--5--------------0--|
--------2------2--3-----|--------3--------0--------|-------------<>7----3-----|
--------2---------------|-----2--------------------|-------------<>7----------|
--4---------------------|--0-----4-----2-----6-----|--4----------<>7----------|
------------------------|--------------------------|--------------------------|
------------------------|--------------------------|--------------------------|


                                               ^                                
  E  E  E  E  E  E  E  E     E  E  E  E  E  E  Q       E  E  E  E  E  E  E  E   
--2--------5--4-----0-----|--2--------5--4-----0----|--2--------5--4--------7--|
--------3--------0-----0--|--------3--------0--0----|--------3-----5-----5-----|
-----2--------------1-----|-----2--------------1----|-----2-----------6--------|
--0-----4-----2-----------|--0-----4-----2-----2----|--0-----4-----------6-----|
--------------------------|--------------------2----|--------------4-----------|
--------------------------|--------------------0----|--------------------------|


                                         NH                                 
  E  E  E  E  E  E  E  E     H           Q    E  E     Q    Q    Q    Q     
--5-----------------------|-----------<>12----------|-------0--------------|
--3-----3--2--------------|----------------------0--|--2---------3----0----|
--------2-----2-----------|-------------------2-----|-------2----2---------|
-----4-----------2--0-----|-------------------------|--2--------------2----|
--2--------------------4--|--2----------------------|--0----4--------------|
--------------------------|--0----------------------|------------2----4----|


  ^                                                                      
  H.           E  E     Q    Q    E  E  E  E     E  E  E  E  Q    E  E   
---------------------|-------0----1--0--------|--------------0-------0--|
--2---------------0--|--2---------------3-----|--2-----0--2-------3-----|
--4------------2-----|-------2----2--0-----2--|-------------------------|
--2------------------|--2---------0-----3-----|-----2-------------------|
--0------------------|--0----4----------------|--0----------------------|
---------------------|------------------------|-------------------------|


  Q    E  E  Q    E  E     Q    E  E  E  E  E  E     Q    Q    Q    Q     
--2----2----------------|--0----0-----------------|----------------------|
----------3--0----2--3--|----------2--------0--2--|--3----2----0---------|
--2----2-----1----1-----|--1----------2-----------|-----------------2----|
--0---------------------|----------------2--------|--4----2----0---------|
------------------------|--4----2-----------------|--2---------2---------|
-------------0----------|-------------2-----------|----------------------|


  ^                                                                       
  H        Q    E  E     E  E  Q    Q    E  E     E  E  E  E  Q    E  E   
----------------------|--------0---------------|-------------------------|
--2--------0-------0--|--2----------3----0-----|--2--------0--2-------0--|
--2--------1----2-----|--------2----2----------|--------2----------2-----|
--4--------2----------|-----2---------------2--|-----2--L----------------|
----------------------|--0-----4---------------|--0----------------------|
--0-------------------|-------------2----4-----|-------------------------|


                           ^                        ^               ^      
  Q    Q    E  E  E  E     Q    E  E  Q    E  E     Q    E  E  Q    E  E   
-------0----1--0--------|-------------0-------0--|--2-------2--2----4--5--|
--2---------------3-----|--2----0--2-------3-----|--3----------3----5-----|
-------2----2--0-----2--|--2---------------------|--2---------------4-----|
--2---------0-----3-----|--2---------------------|--0---------------------|
--0----4----------------|--0---------------------|-------4-----2----------|
------------------------|------------------------|------------------0-----|


                                 ^                                           
  Q.     E  E  E  E  E     E  E  Q    E  E  E  E     E  E  E  E  Q    E  E   
--0------9--7--5--4-----|--------2----0-----------|----------------------0--|
---------------------2--|--0-----3----------0--2--|-----------0--2----3-----|
--2---------------------|--------2-------1--------|--2-----2----------------|
------------------2-----|-----4--0----2-----------|-----2-------------------|
------------------------|--5----------------------|--0----------------------|
--2---------------------|-------------------0-----|-------------------------|


  ^               ^                                        ^          ^     
  Q    E  E  Q    E  E     Q    E  E  E  E  E  E     E  E  Q    E  E  Q     
--2-------2--2----4--5--|--0-------9--7--5--4-----|--------2----0-----4----|
--3----------3----5-----|----------------------2--|--0-----3----------5----|
--2---------------4-----|--2-------9--7--6--4-----|--------2-------1--7----|
--0---------------------|----------------------2--|-----4--0----2----------|
-------4-----2----------|-------0-----------------|--5---------------------|
------------------0-----|--2----------------------|-------------------0----|


  ^                  
  W                  
--5----------------||
--5----------------||
--6----------------||
-------------------||
--0----------------||
-------------------||




Duration Legend
---------------
W - whole
H - half
Q - quarter
E - 8th
S - 16th
T - 32nd
X - 64th
. - note dotted
|-n-|  - n-tuplets


Tablature Legend
----------------
L - tied note
NH - natural harmonic
^ - brush up

Login or Register to remove this ad.

4 comments on Confession

Excellent arrangement, I

Excellent arrangement, I really like this.

This Is Amazing

5

This Is Amazing

*_*

5

*_*

[email protected]!