Main Theme (The Elder Scrolls III: Morrowind) Guitar Tab

Submitted: Oct 01, 2007 by archard (Last updated: Oct 01, 2007)

4.6
Average: 4.6 (10 votes)
Download | Listen
Game: The Elder Scrolls III: Morrowind
Composer(s): Jeremy Soule
Style: Transcription

AutoScroll: Slow | Medium | Fast
Main Theme
Morrowind
Composer: Jeremy Soule
Tabbed by Alex Brenzinger [[email protected]]
March 27 2007

e|--------------------------------------18---------------------------------------
B|----------------------18--20------20------18------20--18-----------------------
G|--17--19--20------20--------------------------------------20--19--17-----------
D|-------------------------------------------------------------------------------
A|-------------------------------------------------------------------------------
E|-------------------------------------------------------------------------------

e|--------------------------------------18--20------18--22--20-------------------
B|----------------------18--20------20-------------------------------------------
G|--17--19--20------20-----------------------------------------------------------
D|-------------------------------------------------------------------------------
A|-------------------------------------------------------------------------------
E|-------------------------------------------------------------------------------

e|--20--22--22b--22--20--18------------------------------------------------------
B|---------------------------21--20--18----------20--18--------------------------
G|-------------------------------------------20--------------20--19--17----------
D|-------------------------------------------------------------------------------
A|-------------------------------------------------------------------------------
E|-------------------------------------------------------------------------------

(My guitar only has 22 frets, hence the bend for that high note, if you have more,
just use 23)

The above plays 3 times and then theres another:

e|-------------------------------------------------------------------------------
B|-------------------------------------------------------------------------------
G|--20--19--17-------------------------------------------------------------------
D|-------------------------------------------------------------------------------
A|-------------------------------------------------------------------------------
E|-------------------------------------------------------------------------------
Login or Register to remove this ad.

14 comments on Main Theme

Why did you put this up so

Why did you put this up so high? It's an octave below this.

Good question! Hahaha, I'll

Good question! Hahaha, I'll submit a new one I guess. :D

Ok, I updated the tab.

Ok, I updated the tab. Thanks Alex.

sweet tab i like it and I

sweet tab i like it and I always liked that game

hurry up, i hate the

hurry up, i hate the loudness lol \,,,/<(*.*)>\,,/

Try this on the high E

Try this on the high E string I only know the first part.

---5-7-8--10--7h8p7-5--3-5--|

never played this game but

never played this game but my mate has and he loves it. the only elder scrolls i've played is oblivion so i based the rythym on the music from that, am i right?

they are pretty much the

they are pretty much the same so it doesn't matter

Yeah, this is way to high.

2

Yeah, this is way to high.

this is a good tab, nice and

5

this is a good tab, nice and acurate, i just play lower frets so i dont have to reach for higher notes, it sounds better not having to bend that note on the 22nd fret, sounds better hitting the 23rd fret

You can go up 4 frets from

You can go up 4 frets from 17 and set the root note as 13

so it would look like

e|-------------------------------------------------14-----
B|----------------------------14--16------16------14-
G|--13--15--16------16-------------------------

this song kinda sounds like

4

this song kinda sounds like a slow version of pirates of the caribbean but i know that this one came first...good tab. too high

Oh wow- is it that hard to

Oh wow- is it that hard to figure it out?
Make the 17 on the g string a 5 on the g string and go from there.
such as:
I dunno how to format sorry!

B| ----------6-8-
G| -5-7-8--8-----
and so on...
I'll make a tab for this actually :D

if you want the tab an octave

if you want the tab an octave lower, just subtract all the frets by 12